ISO-10303-21;
HEADER;
FILE_DESCRIPTION (( 'STEP AP214' ),
    '1' );
FILE_NAME ('WCP-1821 Rev1.step',
    '2025-04-10T00:00:45',
    ( '' ),
    ( '' ),
    'SwSTEP 2.0',
    'SolidWorks 2022',
    '' );
FILE_SCHEMA (( 'AUTOMOTIVE_DESIGN' ));
ENDSEC;

DATA;
#1 =( NAMED_UNIT ( * ) PLANE_ANGLE_UNIT ( ) SI_UNIT ( $, .RADIAN. ) );
#2 =( CONVERSION_BASED_UNIT ( 'INCH', #156 ) LENGTH_UNIT ( ) NAMED_UNIT ( #135 ) );
#3 = CIRCLE ( 'NONE', #202, 1.477000000000000313 ) ;
#4 = VERTEX_POINT ( 'NONE', #78 ) ;
#5 = CARTESIAN_POINT ( 'NONE',  ( -18.00000000000000000, 0.000000000000000000, 0.000000000000000000 ) ) ;
#6 = ORIENTED_EDGE ( 'NONE', *, *, #71, .T. ) ;
#7 = FACE_BOUND ( 'NONE', #8, .T. ) ;
#8 = EDGE_LOOP ( 'NONE', ( #214, #73 ) ) ;
#9 = VERTEX_POINT ( 'NONE', #199 ) ;
#10 =( NAMED_UNIT ( * ) PLANE_ANGLE_UNIT ( ) SI_UNIT ( $, .RADIAN. ) );
#11 = CARTESIAN_POINT ( 'NONE',  ( 18.00000000000000000, 0.000000000000000000, 0.000000000000000000 ) ) ;
#12 = AXIS2_PLACEMENT_3D ( 'NONE', #180, #212, #165 ) ;
#13 = ORIENTED_EDGE ( 'NONE', *, *, #220, .T. ) ;
#14 = EDGE_CURVE ( 'NONE', #97, #123, #130, .T. ) ;
#15 = DIRECTION ( 'NONE',  ( 1.000000000000000000, 0.000000000000000000, 0.000000000000000000 ) ) ;
#16 = FILL_AREA_STYLE ('',( #65 ) ) ;
#17 = DIRECTION ( 'NONE',  ( -1.000000000000000000, -0.000000000000000000, -0.000000000000000000 ) ) ;
#18 = MECHANICAL_DESIGN_GEOMETRIC_PRESENTATION_REPRESENTATION (  '', ( #80 ), #192 ) ;
#19 = APPLICATION_PROTOCOL_DEFINITION ( 'draft international standard', 'automotive_design', 1998, #190 ) ;
#20 = CIRCLE ( 'NONE', #210, 1.477000000000000313 ) ;
#21 = DIRECTION ( 'NONE',  ( 0.000000000000000000, 0.000000000000000000, -1.000000000000000000 ) ) ;
#22 = FACE_BOUND ( 'NONE', #183, .T. ) ;
#23 = AXIS2_PLACEMENT_3D ( 'NONE', #11, #79, #26 ) ;
#24 = PRODUCT ( 'WCP-1821 Rev1', 'WCP-1821 Rev1', '', ( #83 ) ) ;
#25 = VERTEX_POINT ( 'NONE', #93 ) ;
#26 = DIRECTION ( 'NONE',  ( 0.000000000000000000, 0.000000000000000000, 1.000000000000000000 ) ) ;
#27 = ADVANCED_FACE ( 'NONE', ( #128, #7 ), #44, .T. ) ;
#28 = DIRECTION ( 'NONE',  ( 0.000000000000000000, 0.000000000000000000, -1.000000000000000000 ) ) ;
#29 = CARTESIAN_POINT ( 'NONE',  ( -18.00000000000000000, 0.000000000000000000, 0.000000000000000000 ) ) ;
#30 = ORIENTED_EDGE ( 'NONE', *, *, #148, .T. ) ;
#31 = AXIS2_PLACEMENT_3D ( 'NONE', #29, #162, #28 ) ;
#32 = DIMENSIONAL_EXPONENTS ( 1.000000000000000000, 0.000000000000000000, 0.000000000000000000, 0.000000000000000000, 0.000000000000000000, 0.000000000000000000, 0.000000000000000000 ) ;
#33 =( NAMED_UNIT ( * ) SI_UNIT ( $, .STERADIAN. ) SOLID_ANGLE_UNIT ( ) );
#34 = LINE ( 'NONE', #102, #89 ) ;
#35 = SURFACE_STYLE_USAGE ( .BOTH. , #204 ) ;
#36 = AXIS2_PLACEMENT_3D ( 'NONE', #111, #161, #114 ) ;
#37 = SHAPE_DEFINITION_REPRESENTATION ( #178, #106 ) ;
#38 = COLOUR_RGB ( '',1.000000000000000000, 1.000000000000000000, 1.000000000000000000 ) ;
#39 = DIRECTION ( 'NONE',  ( 1.000000000000000000, 0.000000000000000000, 0.000000000000000000 ) ) ;
#40 = FACE_OUTER_BOUND ( 'NONE', #174, .T. ) ;
#41 = ORIENTED_EDGE ( 'NONE', *, *, #127, .T. ) ;
#42 = FACE_OUTER_BOUND ( 'NONE', #76, .T. ) ;
#43 = CYLINDRICAL_SURFACE ( 'NONE', #12, 1.437500000000000000 ) ;
#44 = PLANE ( 'NONE',  #108 ) ;
#45 = ADVANCED_FACE ( 'NONE', ( #42 ), #163, .F. ) ;
#46 = DIRECTION ( 'NONE',  ( 0.000000000000000000, 0.000000000000000000, 1.000000000000000000 ) ) ;
#47 = CARTESIAN_POINT ( 'NONE',  ( 18.00000000000000000, 0.000000000000000000, 0.000000000000000000 ) ) ;
#48 = AXIS2_PLACEMENT_3D ( 'NONE', #55, #207, #92 ) ;
#49 = LENGTH_MEASURE_WITH_UNIT ( LENGTH_MEASURE( 0.02539999999999999897 ), #69 );
#50 =( NAMED_UNIT ( * ) PLANE_ANGLE_UNIT ( ) SI_UNIT ( $, .RADIAN. ) );
#51 = CARTESIAN_POINT ( 'NONE',  ( -18.00000000000000000, 0.000000000000000000, 1.437500000000000000 ) ) ;
#52 = CIRCLE ( 'NONE', #140, 1.477000000000000313 ) ;
#53 = ORIENTED_EDGE ( 'NONE', *, *, #213, .T. ) ;
#54 = CARTESIAN_POINT ( 'NONE',  ( -18.00000000000000000, 0.000000000000000000, 0.000000000000000000 ) ) ;
#55 = CARTESIAN_POINT ( 'NONE',  ( 18.00000000000000000, 0.000000000000000000, 0.000000000000000000 ) ) ;
#56 = DIRECTION ( 'NONE',  ( 0.000000000000000000, 0.000000000000000000, -1.000000000000000000 ) ) ;
#57 = CYLINDRICAL_SURFACE ( 'NONE', #48, 1.477000000000000313 ) ;
#58 = DIRECTION ( 'NONE',  ( -1.000000000000000000, -0.000000000000000000, -0.000000000000000000 ) ) ;
#59 = AXIS2_PLACEMENT_3D ( 'NONE', #82, #66, #46 ) ;
#60 = ORIENTED_EDGE ( 'NONE', *, *, #96, .F. ) ;
#61 = ORIENTED_EDGE ( 'NONE', *, *, #100, .F. ) ;
#62 = CARTESIAN_POINT ( 'NONE',  ( 18.00000000000000000, 0.000000000000000000, 1.437500000000000000 ) ) ;
#63 = ORIENTED_EDGE ( 'NONE', *, *, #213, .F. ) ;
#64 = VECTOR ( 'NONE', #70, 39.37007874015748143 ) ;
#65 = FILL_AREA_STYLE_COLOUR ( '', #38 ) ;
#66 = DIRECTION ( 'NONE',  ( -1.000000000000000000, -0.000000000000000000, -0.000000000000000000 ) ) ;
#67 = SURFACE_STYLE_FILL_AREA ( #138 ) ;
#68 = CARTESIAN_POINT ( 'NONE',  ( 0.000000000000000000, 0.000000000000000000, 0.000000000000000000 ) ) ;
#69 =( LENGTH_UNIT ( ) NAMED_UNIT ( * ) SI_UNIT ( $, .METRE. ) );
#70 = DIRECTION ( 'NONE',  ( -1.000000000000000000, -0.000000000000000000, -0.000000000000000000 ) ) ;
#71 = EDGE_CURVE ( 'NONE', #90, #158, #205, .T. ) ;
#72 = MECHANICAL_DESIGN_GEOMETRIC_PRESENTATION_REPRESENTATION (  '', ( #215 ), #121 ) ;
#73 = ORIENTED_EDGE ( 'NONE', *, *, #109, .F. ) ;
#74 = DIRECTION ( 'NONE',  ( 1.000000000000000000, 0.000000000000000000, 0.000000000000000000 ) ) ;
#75 =( GEOMETRIC_REPRESENTATION_CONTEXT ( 3 ) GLOBAL_UNCERTAINTY_ASSIGNED_CONTEXT ( ( #193 ) ) GLOBAL_UNIT_ASSIGNED_CONTEXT ( ( #216, #10, #33 ) ) REPRESENTATION_CONTEXT ( 'NONE', 'WORKASPACE' ) );
#76 = EDGE_LOOP ( 'NONE', ( #6, #41, #141, #159 ) ) ;
#77 = ORIENTED_EDGE ( 'NONE', *, *, #91, .T. ) ;
#78 = CARTESIAN_POINT ( 'NONE',  ( 18.00000000000000000, 1.808803322340640996E-16, -1.477000000000000313 ) ) ;
#79 = DIRECTION ( 'NONE',  ( -1.000000000000000000, -0.000000000000000000, -0.000000000000000000 ) ) ;
#80 = STYLED_ITEM ( 'NONE', ( #154 ), #106 ) ;
#81 = LENGTH_MEASURE_WITH_UNIT ( LENGTH_MEASURE( 0.02539999999999999897 ), #132 );
#82 = CARTESIAN_POINT ( 'NONE',  ( 18.00000000000000000, 0.000000000000000000, 0.000000000000000000 ) ) ;
#83 = PRODUCT_CONTEXT ( 'NONE', #190, 'mechanical' ) ;
#84 = SURFACE_SIDE_STYLE ('',( #137 ) ) ;
#85 = FILL_AREA_STYLE_COLOUR ( '', #101 ) ;
#86 = DIMENSIONAL_EXPONENTS ( 1.000000000000000000, 0.000000000000000000, 0.000000000000000000, 0.000000000000000000, 0.000000000000000000, 0.000000000000000000, 0.000000000000000000 ) ;
#87 = ADVANCED_FACE ( 'NONE', ( #181 ), #153, .T. ) ;
#88 = ADVANCED_FACE ( 'NONE', ( #149 ), #43, .F. ) ;
#89 = VECTOR ( 'NONE', #17, 39.37007874015748143 ) ;
#90 = VERTEX_POINT ( 'NONE', #62 ) ;
#91 = EDGE_CURVE ( 'NONE', #133, #9, #52, .T. ) ;
#92 = DIRECTION ( 'NONE',  ( 0.000000000000000000, 0.000000000000000000, 1.000000000000000000 ) ) ;
#93 = CARTESIAN_POINT ( 'NONE',  ( 18.00000000000000000, 0.000000000000000000, 1.477000000000000313 ) ) ;
#94 = ORIENTED_EDGE ( 'NONE', *, *, #109, .T. ) ;
#95 = APPLICATION_CONTEXT ( 'automotive_design' ) ;
#96 = EDGE_CURVE ( 'NONE', #25, #4, #152, .T. ) ;
#97 = VERTEX_POINT ( 'NONE', #51 ) ;
#98 = DIRECTION ( 'NONE',  ( 0.000000000000000000, 0.000000000000000000, -1.000000000000000000 ) ) ;
#99 = CARTESIAN_POINT ( 'NONE',  ( -18.00000000000000000, 0.000000000000000000, 0.000000000000000000 ) ) ;
#100 = EDGE_CURVE ( 'NONE', #4, #9, #201, .T. ) ;
#101 = COLOUR_RGB ( '',1.000000000000000000, 1.000000000000000000, 1.000000000000000000 ) ;
#102 = CARTESIAN_POINT ( 'NONE',  ( 18.00000000000000000, 1.760429773774320220E-16, -1.437500000000000000 ) ) ;
#103 = DIRECTION ( 'NONE',  ( 1.000000000000000000, 0.000000000000000000, 0.000000000000000000 ) ) ;
#104 = AXIS2_PLACEMENT_3D ( 'NONE', #182, #134, #187 ) ;
#105 = PRODUCT_DEFINITION ( 'UNKNOWN', '', #107, #145 ) ;
#106 = ADVANCED_BREP_SHAPE_REPRESENTATION ( 'WCP-1821 Rev1', ( #143, #184 ), #75 ) ;
#107 = PRODUCT_DEFINITION_FORMATION_WITH_SPECIFIED_SOURCE ( 'ANY', '', #24, .NOT_KNOWN. ) ;
#108 = AXIS2_PLACEMENT_3D ( 'NONE', #197, #198, #98 ) ;
#109 = EDGE_CURVE ( 'NONE', #158, #90, #186, .T. ) ;
#110 = ORIENTED_EDGE ( 'NONE', *, *, #144, .F. ) ;
#111 = CARTESIAN_POINT ( 'NONE',  ( 18.00000000000000000, 0.000000000000000000, 0.000000000000000000 ) ) ;
#112 = DIRECTION ( 'NONE',  ( 0.000000000000000000, 0.000000000000000000, -1.000000000000000000 ) ) ;
#113 = ORIENTED_EDGE ( 'NONE', *, *, #167, .T. ) ;
#114 = DIRECTION ( 'NONE',  ( 0.000000000000000000, 0.000000000000000000, -1.000000000000000000 ) ) ;
#115 = PRESENTATION_STYLE_ASSIGNMENT (( #35 ) ) ;
#116 = CARTESIAN_POINT ( 'NONE',  ( 18.00000000000000000, 0.000000000000000000, 1.477000000000000313 ) ) ;
#117 = SURFACE_STYLE_USAGE ( .BOTH. , #84 ) ;
#118 = DIRECTION ( 'NONE',  ( 0.000000000000000000, 0.000000000000000000, -1.000000000000000000 ) ) ;
#119 = PRODUCT_RELATED_PRODUCT_CATEGORY ( 'part', '', ( #24 ) ) ;
#120 = DIRECTION ( 'NONE',  ( 0.000000000000000000, 0.000000000000000000, 1.000000000000000000 ) ) ;
#121 =( GEOMETRIC_REPRESENTATION_CONTEXT ( 3 ) GLOBAL_UNCERTAINTY_ASSIGNED_CONTEXT ( ( #124 ) ) GLOBAL_UNIT_ASSIGNED_CONTEXT ( ( #2, #50, #219 ) ) REPRESENTATION_CONTEXT ( 'NONE', 'WORKASPACE' ) );
#122 = EDGE_LOOP ( 'NONE', ( #185, #217 ) ) ;
#123 = VERTEX_POINT ( 'NONE', #166 ) ;
#124 = UNCERTAINTY_MEASURE_WITH_UNIT (LENGTH_MEASURE( 1.000000000000000082E-05 ), #2, 'distance_accuracy_value', 'NONE');
#125 = LINE ( 'NONE', #208, #177 ) ;
#126 = ORIENTED_EDGE ( 'NONE', *, *, #91, .F. ) ;
#127 = EDGE_CURVE ( 'NONE', #158, #123, #34, .T. ) ;
#128 = FACE_OUTER_BOUND ( 'NONE', #122, .T. ) ;
#129 = DIRECTION ( 'NONE',  ( 1.000000000000000000, 0.000000000000000000, 0.000000000000000000 ) ) ;
#130 = CIRCLE ( 'NONE', #31, 1.437500000000000000 ) ;
#131 = ORIENTED_EDGE ( 'NONE', *, *, #148, .F. ) ;
#132 =( LENGTH_UNIT ( ) NAMED_UNIT ( * ) SI_UNIT ( $, .METRE. ) );
#133 = VERTEX_POINT ( 'NONE', #188 ) ;
#134 = DIRECTION ( 'NONE',  ( 1.000000000000000000, 0.000000000000000000, 0.000000000000000000 ) ) ;
#135 = DIMENSIONAL_EXPONENTS ( 1.000000000000000000, 0.000000000000000000, 0.000000000000000000, 0.000000000000000000, 0.000000000000000000, 0.000000000000000000, 0.000000000000000000 ) ;
#136 = LINE ( 'NONE', #116, #164 ) ;
#137 = SURFACE_STYLE_FILL_AREA ( #16 ) ;
#138 = FILL_AREA_STYLE ('',( #85 ) ) ;
#139 = APPLICATION_PROTOCOL_DEFINITION ( 'draft international standard', 'automotive_design', 1998, #95 ) ;
#140 = AXIS2_PLACEMENT_3D ( 'NONE', #99, #129, #112 ) ;
#141 = ORIENTED_EDGE ( 'NONE', *, *, #14, .F. ) ;
#142 = CARTESIAN_POINT ( 'NONE',  ( -18.00000000000000000, 0.000000000000000000, 0.000000000000000000 ) ) ;
#143 = MANIFOLD_SOLID_BREP ( 'Boss-Extrude1', #151 ) ;
#144 = EDGE_CURVE ( 'NONE', #4, #25, #20, .T. ) ;
#145 = PRODUCT_DEFINITION_CONTEXT ( 'detailed design', #95, 'design' ) ;
#146 = CIRCLE ( 'NONE', #168, 1.437500000000000000 ) ;
#147 = EDGE_LOOP ( 'NONE', ( #61, #60, #30, #77 ) ) ;
#148 = EDGE_CURVE ( 'NONE', #25, #133, #136, .T. ) ;
#149 = FACE_OUTER_BOUND ( 'NONE', #196, .T. ) ;
#150 = EDGE_LOOP ( 'NONE', ( #126, #191 ) ) ;
#151 = CLOSED_SHELL ( 'NONE', ( #45, #173, #27, #206, #87, #88 ) ) ;
#152 = CIRCLE ( 'NONE', #104, 1.477000000000000313 ) ;
#153 = CYLINDRICAL_SURFACE ( 'NONE', #59, 1.477000000000000313 ) ;
#154 = PRESENTATION_STYLE_ASSIGNMENT (( #117 ) ) ;
#155 = CARTESIAN_POINT ( 'NONE',  ( 18.00000000000000000, 1.808803322340640996E-16, -1.477000000000000313 ) ) ;
#156 = LENGTH_MEASURE_WITH_UNIT ( LENGTH_MEASURE( 0.02539999999999999897 ), #169 );
#157 = DIRECTION ( 'NONE',  ( -1.000000000000000000, -0.000000000000000000, -0.000000000000000000 ) ) ;
#158 = VERTEX_POINT ( 'NONE', #172 ) ;
#159 = ORIENTED_EDGE ( 'NONE', *, *, #167, .F. ) ;
#160 = PRESENTATION_LAYER_ASSIGNMENT (  '', '', ( #80 ) ) ;
#161 = DIRECTION ( 'NONE',  ( 1.000000000000000000, 0.000000000000000000, 0.000000000000000000 ) ) ;
#162 = DIRECTION ( 'NONE',  ( 1.000000000000000000, 0.000000000000000000, 0.000000000000000000 ) ) ;
#163 = CYLINDRICAL_SURFACE ( 'NONE', #23, 1.437500000000000000 ) ;
#164 = VECTOR ( 'NONE', #58, 39.37007874015748143 ) ;
#165 = DIRECTION ( 'NONE',  ( 0.000000000000000000, 0.000000000000000000, 1.000000000000000000 ) ) ;
#166 = CARTESIAN_POINT ( 'NONE',  ( -18.00000000000000000, 1.760429773774320220E-16, -1.437500000000000000 ) ) ;
#167 = EDGE_CURVE ( 'NONE', #90, #97, #125, .T. ) ;
#168 = AXIS2_PLACEMENT_3D ( 'NONE', #142, #171, #21 ) ;
#169 =( LENGTH_UNIT ( ) NAMED_UNIT ( * ) SI_UNIT ( $, .METRE. ) );
#170 = AXIS2_PLACEMENT_3D ( 'NONE', #54, #39, #175 ) ;
#171 = DIRECTION ( 'NONE',  ( 1.000000000000000000, 0.000000000000000000, 0.000000000000000000 ) ) ;
#172 = CARTESIAN_POINT ( 'NONE',  ( 18.00000000000000000, 1.760429773774320220E-16, -1.437500000000000000 ) ) ;
#173 = ADVANCED_FACE ( 'NONE', ( #40 ), #57, .T. ) ;
#174 = EDGE_LOOP ( 'NONE', ( #110, #200, #13, #131 ) ) ;
#175 = DIRECTION ( 'NONE',  ( 0.000000000000000000, 0.000000000000000000, -1.000000000000000000 ) ) ;
#176 = UNCERTAINTY_MEASURE_WITH_UNIT (LENGTH_MEASURE( 1.000000000000000082E-05 ), #222, 'distance_accuracy_value', 'NONE');
#177 = VECTOR ( 'NONE', #157, 39.37007874015748143 ) ;
#178 = PRODUCT_DEFINITION_SHAPE ( 'NONE', 'NONE',  #105 ) ;
#179 = PLANE ( 'NONE',  #170 ) ;
#180 = CARTESIAN_POINT ( 'NONE',  ( 18.00000000000000000, 0.000000000000000000, 0.000000000000000000 ) ) ;
#181 = FACE_OUTER_BOUND ( 'NONE', #147, .T. ) ;
#182 = CARTESIAN_POINT ( 'NONE',  ( 18.00000000000000000, 0.000000000000000000, 0.000000000000000000 ) ) ;
#183 = EDGE_LOOP ( 'NONE', ( #211, #53 ) ) ;
#184 = AXIS2_PLACEMENT_3D ( 'NONE', #68, #120, #103 ) ;
#185 = ORIENTED_EDGE ( 'NONE', *, *, #96, .T. ) ;
#186 = CIRCLE ( 'NONE', #195, 1.437500000000000000 ) ;
#187 = DIRECTION ( 'NONE',  ( 0.000000000000000000, 0.000000000000000000, -1.000000000000000000 ) ) ;
#188 = CARTESIAN_POINT ( 'NONE',  ( -18.00000000000000000, 0.000000000000000000, 1.477000000000000313 ) ) ;
#189 = PRESENTATION_LAYER_ASSIGNMENT (  '', '', ( #215 ) ) ;
#190 = APPLICATION_CONTEXT ( 'automotive_design' ) ;
#191 = ORIENTED_EDGE ( 'NONE', *, *, #220, .F. ) ;
#192 =( GEOMETRIC_REPRESENTATION_CONTEXT ( 3 ) GLOBAL_UNCERTAINTY_ASSIGNED_CONTEXT ( ( #176 ) ) GLOBAL_UNIT_ASSIGNED_CONTEXT ( ( #222, #1, #218 ) ) REPRESENTATION_CONTEXT ( 'NONE', 'WORKASPACE' ) );
#193 = UNCERTAINTY_MEASURE_WITH_UNIT (LENGTH_MEASURE( 1.000000000000000082E-05 ), #216, 'distance_accuracy_value', 'NONE');
#194 = FACE_OUTER_BOUND ( 'NONE', #150, .T. ) ;
#195 = AXIS2_PLACEMENT_3D ( 'NONE', #203, #223, #118 ) ;
#196 = EDGE_LOOP ( 'NONE', ( #209, #94, #113, #63 ) ) ;
#197 = CARTESIAN_POINT ( 'NONE',  ( 18.00000000000000000, 0.000000000000000000, 0.000000000000000000 ) ) ;
#198 = DIRECTION ( 'NONE',  ( 1.000000000000000000, 0.000000000000000000, 0.000000000000000000 ) ) ;
#199 = CARTESIAN_POINT ( 'NONE',  ( -18.00000000000000000, 1.808803322340640996E-16, -1.477000000000000313 ) ) ;
#200 = ORIENTED_EDGE ( 'NONE', *, *, #100, .T. ) ;
#201 = LINE ( 'NONE', #155, #64 ) ;
#202 = AXIS2_PLACEMENT_3D ( 'NONE', #5, #74, #56 ) ;
#203 = CARTESIAN_POINT ( 'NONE',  ( 18.00000000000000000, 0.000000000000000000, 0.000000000000000000 ) ) ;
#204 = SURFACE_SIDE_STYLE ('',( #67 ) ) ;
#205 = CIRCLE ( 'NONE', #36, 1.437500000000000000 ) ;
#206 = ADVANCED_FACE ( 'NONE', ( #194, #22 ), #179, .F. ) ;
#207 = DIRECTION ( 'NONE',  ( -1.000000000000000000, -0.000000000000000000, -0.000000000000000000 ) ) ;
#208 = CARTESIAN_POINT ( 'NONE',  ( 18.00000000000000000, 0.000000000000000000, 1.437500000000000000 ) ) ;
#209 = ORIENTED_EDGE ( 'NONE', *, *, #127, .F. ) ;
#210 = AXIS2_PLACEMENT_3D ( 'NONE', #47, #15, #221 ) ;
#211 = ORIENTED_EDGE ( 'NONE', *, *, #14, .T. ) ;
#212 = DIRECTION ( 'NONE',  ( -1.000000000000000000, -0.000000000000000000, -0.000000000000000000 ) ) ;
#213 = EDGE_CURVE ( 'NONE', #123, #97, #146, .T. ) ;
#214 = ORIENTED_EDGE ( 'NONE', *, *, #71, .F. ) ;
#215 = STYLED_ITEM ( 'NONE', ( #115 ), #143 ) ;
#216 =( CONVERSION_BASED_UNIT ( 'INCH', #49 ) LENGTH_UNIT ( ) NAMED_UNIT ( #32 ) );
#217 = ORIENTED_EDGE ( 'NONE', *, *, #144, .T. ) ;
#218 =( NAMED_UNIT ( * ) SI_UNIT ( $, .STERADIAN. ) SOLID_ANGLE_UNIT ( ) );
#219 =( NAMED_UNIT ( * ) SI_UNIT ( $, .STERADIAN. ) SOLID_ANGLE_UNIT ( ) );
#220 = EDGE_CURVE ( 'NONE', #9, #133, #3, .T. ) ;
#221 = DIRECTION ( 'NONE',  ( 0.000000000000000000, 0.000000000000000000, -1.000000000000000000 ) ) ;
#222 =( CONVERSION_BASED_UNIT ( 'INCH', #81 ) LENGTH_UNIT ( ) NAMED_UNIT ( #86 ) );
#223 = DIRECTION ( 'NONE',  ( 1.000000000000000000, 0.000000000000000000, 0.000000000000000000 ) ) ;
ENDSEC;
END-ISO-10303-21;
