ISO-10303-21;
HEADER;
FILE_DESCRIPTION (( 'STEP AP214' ),
    '1' );
FILE_NAME ('WCP-1820 Rev1.step',
    '2025-04-10T00:00:40',
    ( '' ),
    ( '' ),
    'SwSTEP 2.0',
    'SolidWorks 2022',
    '' );
FILE_SCHEMA (( 'AUTOMOTIVE_DESIGN' ));
ENDSEC;

DATA;
#1 = ORIENTED_EDGE ( 'NONE', *, *, #202, .T. ) ;
#2 = ORIENTED_EDGE ( 'NONE', *, *, #101, .T. ) ;
#3 = DIRECTION ( 'NONE',  ( 0.000000000000000000, 0.000000000000000000, -1.000000000000000000 ) ) ;
#4 = ORIENTED_EDGE ( 'NONE', *, *, #204, .T. ) ;
#5 = FILL_AREA_STYLE ('',( #158 ) ) ;
#6 = DIRECTION ( 'NONE',  ( 0.000000000000000000, 0.000000000000000000, -1.000000000000000000 ) ) ;
#7 = CARTESIAN_POINT ( 'NONE',  ( 18.00000000000000000, 0.000000000000000000, 1.187500000000000000 ) ) ;
#8 = AXIS2_PLACEMENT_3D ( 'NONE', #141, #177, #3 ) ;
#9 = DIRECTION ( 'NONE',  ( -1.000000000000000000, -0.000000000000000000, -0.000000000000000000 ) ) ;
#10 = UNCERTAINTY_MEASURE_WITH_UNIT (LENGTH_MEASURE( 1.000000000000000082E-05 ), #223, 'distance_accuracy_value', 'NONE');
#11 = FACE_OUTER_BOUND ( 'NONE', #109, .T. ) ;
#12 = CIRCLE ( 'NONE', #8, 1.227000000000000091 ) ;
#13 = FACE_OUTER_BOUND ( 'NONE', #85, .T. ) ;
#14 = ORIENTED_EDGE ( 'NONE', *, *, #101, .F. ) ;
#15 = AXIS2_PLACEMENT_3D ( 'NONE', #105, #214, #187 ) ;
#16 = ORIENTED_EDGE ( 'NONE', *, *, #119, .F. ) ;
#17 = ADVANCED_BREP_SHAPE_REPRESENTATION ( 'WCP-1820 Rev1', ( #143, #221 ), #208 ) ;
#18 = FACE_OUTER_BOUND ( 'NONE', #178, .T. ) ;
#19 = PRODUCT_DEFINITION_FORMATION_WITH_SPECIFIED_SOURCE ( 'ANY', '', #107, .NOT_KNOWN. ) ;
#20 = DIRECTION ( 'NONE',  ( 1.000000000000000000, 0.000000000000000000, 0.000000000000000000 ) ) ;
#21 = CIRCLE ( 'NONE', #100, 1.227000000000000091 ) ;
#22 = DIRECTION ( 'NONE',  ( 0.000000000000000000, 0.000000000000000000, -1.000000000000000000 ) ) ;
#23 = SURFACE_STYLE_USAGE ( .BOTH. , #166 ) ;
#24 = DIRECTION ( 'NONE',  ( -1.000000000000000000, -0.000000000000000000, -0.000000000000000000 ) ) ;
#25 =( NAMED_UNIT ( * ) PLANE_ANGLE_UNIT ( ) SI_UNIT ( $, .RADIAN. ) );
#26 = LINE ( 'NONE', #129, #64 ) ;
#27 = EDGE_CURVE ( 'NONE', #154, #153, #35, .T. ) ;
#28 = FILL_AREA_STYLE_COLOUR ( '', #55 ) ;
#29 = EDGE_CURVE ( 'NONE', #153, #154, #198, .T. ) ;
#30 = DIRECTION ( 'NONE',  ( 0.000000000000000000, 0.000000000000000000, 1.000000000000000000 ) ) ;
#31 =( GEOMETRIC_REPRESENTATION_CONTEXT ( 3 ) GLOBAL_UNCERTAINTY_ASSIGNED_CONTEXT ( ( #10 ) ) GLOBAL_UNIT_ASSIGNED_CONTEXT ( ( #223, #99, #168 ) ) REPRESENTATION_CONTEXT ( 'NONE', 'WORKASPACE' ) );
#32 = ORIENTED_EDGE ( 'NONE', *, *, #123, .F. ) ;
#33 = EDGE_LOOP ( 'NONE', ( #73, #32 ) ) ;
#34 = CARTESIAN_POINT ( 'NONE',  ( 0.000000000000000000, 0.000000000000000000, 0.000000000000000000 ) ) ;
#35 = CIRCLE ( 'NONE', #81, 1.187500000000000000 ) ;
#36 = AXIS2_PLACEMENT_3D ( 'NONE', #219, #78, #62 ) ;
#37 = ORIENTED_EDGE ( 'NONE', *, *, #29, .T. ) ;
#38 = COLOUR_RGB ( '',1.000000000000000000, 1.000000000000000000, 1.000000000000000000 ) ;
#39 = CARTESIAN_POINT ( 'NONE',  ( 18.00000000000000000, 0.000000000000000000, 0.000000000000000000 ) ) ;
#40 = DIMENSIONAL_EXPONENTS ( 1.000000000000000000, 0.000000000000000000, 0.000000000000000000, 0.000000000000000000, 0.000000000000000000, 0.000000000000000000, 0.000000000000000000 ) ;
#41 = CARTESIAN_POINT ( 'NONE',  ( -18.00000000000000000, 0.000000000000000000, 0.000000000000000000 ) ) ;
#42 = ADVANCED_FACE ( 'NONE', ( #18, #174 ), #76, .T. ) ;
#43 = PRESENTATION_LAYER_ASSIGNMENT (  '', '', ( #138 ) ) ;
#44 =( NAMED_UNIT ( * ) PLANE_ANGLE_UNIT ( ) SI_UNIT ( $, .RADIAN. ) );
#45 = UNCERTAINTY_MEASURE_WITH_UNIT (LENGTH_MEASURE( 1.000000000000000082E-05 ), #124, 'distance_accuracy_value', 'NONE');
#46 =( LENGTH_UNIT ( ) NAMED_UNIT ( * ) SI_UNIT ( $, .METRE. ) );
#47 = PRESENTATION_STYLE_ASSIGNMENT (( #122 ) ) ;
#48 = CARTESIAN_POINT ( 'NONE',  ( -18.00000000000000000, 1.502641622553802386E-16, -1.227000000000000091 ) ) ;
#49 = AXIS2_PLACEMENT_3D ( 'NONE', #41, #189, #102 ) ;
#50 =( NAMED_UNIT ( * ) SI_UNIT ( $, .STERADIAN. ) SOLID_ANGLE_UNIT ( ) );
#51 = PRODUCT_RELATED_PRODUCT_CATEGORY ( 'part', '', ( #107 ) ) ;
#52 = AXIS2_PLACEMENT_3D ( 'NONE', #70, #137, #209 ) ;
#53 = EDGE_LOOP ( 'NONE', ( #207, #37, #2, #16 ) ) ;
#54 = DIRECTION ( 'NONE',  ( 0.000000000000000000, 0.000000000000000000, -1.000000000000000000 ) ) ;
#55 = COLOUR_RGB ( '',1.000000000000000000, 1.000000000000000000, 1.000000000000000000 ) ;
#56 = FACE_BOUND ( 'NONE', #74, .T. ) ;
#57 = ORIENTED_EDGE ( 'NONE', *, *, #27, .T. ) ;
#58 = DIRECTION ( 'NONE',  ( -1.000000000000000000, -0.000000000000000000, -0.000000000000000000 ) ) ;
#59 = CARTESIAN_POINT ( 'NONE',  ( 18.00000000000000000, 0.000000000000000000, 1.187500000000000000 ) ) ;
#60 = ADVANCED_FACE ( 'NONE', ( #136 ), #159, .F. ) ;
#61 = DIRECTION ( 'NONE',  ( 0.000000000000000000, 0.000000000000000000, 1.000000000000000000 ) ) ;
#62 = DIRECTION ( 'NONE',  ( 0.000000000000000000, 0.000000000000000000, 1.000000000000000000 ) ) ;
#63 = LINE ( 'NONE', #127, #72 ) ;
#64 = VECTOR ( 'NONE', #79, 39.37007874015748143 ) ;
#65 = CARTESIAN_POINT ( 'NONE',  ( -18.00000000000000000, 0.000000000000000000, 0.000000000000000000 ) ) ;
#66 = APPLICATION_CONTEXT ( 'automotive_design' ) ;
#67 = PRODUCT_CONTEXT ( 'NONE', #66, 'mechanical' ) ;
#68 = DIRECTION ( 'NONE',  ( 1.000000000000000000, 0.000000000000000000, 0.000000000000000000 ) ) ;
#69 = ORIENTED_EDGE ( 'NONE', *, *, #216, .T. ) ;
#70 = CARTESIAN_POINT ( 'NONE',  ( 18.00000000000000000, 0.000000000000000000, 0.000000000000000000 ) ) ;
#71 = EDGE_CURVE ( 'NONE', #113, #88, #184, .T. ) ;
#72 = VECTOR ( 'NONE', #165, 39.37007874015748143 ) ;
#73 = ORIENTED_EDGE ( 'NONE', *, *, #86, .F. ) ;
#74 = EDGE_LOOP ( 'NONE', ( #157, #134 ) ) ;
#75 = SURFACE_STYLE_FILL_AREA ( #5 ) ;
#76 = PLANE ( 'NONE',  #77 ) ;
#77 = AXIS2_PLACEMENT_3D ( 'NONE', #39, #91, #22 ) ;
#78 = DIRECTION ( 'NONE',  ( -1.000000000000000000, -0.000000000000000000, -0.000000000000000000 ) ) ;
#79 = DIRECTION ( 'NONE',  ( -1.000000000000000000, -0.000000000000000000, -0.000000000000000000 ) ) ;
#80 = PRODUCT_DEFINITION_SHAPE ( 'NONE', 'NONE',  #220 ) ;
#81 = AXIS2_PLACEMENT_3D ( 'NONE', #87, #135, #114 ) ;
#82 = CARTESIAN_POINT ( 'NONE',  ( 18.00000000000000000, 1.454268073987482103E-16, -1.187500000000000000 ) ) ;
#83 = VERTEX_POINT ( 'NONE', #194 ) ;
#84 = DIRECTION ( 'NONE',  ( 1.000000000000000000, 0.000000000000000000, 0.000000000000000000 ) ) ;
#85 = EDGE_LOOP ( 'NONE', ( #167, #4, #90, #117 ) ) ;
#86 = EDGE_CURVE ( 'NONE', #83, #210, #12, .T. ) ;
#87 = CARTESIAN_POINT ( 'NONE',  ( 18.00000000000000000, 0.000000000000000000, 0.000000000000000000 ) ) ;
#88 = VERTEX_POINT ( 'NONE', #115 ) ;
#89 = CARTESIAN_POINT ( 'NONE',  ( 18.00000000000000000, 0.000000000000000000, 0.000000000000000000 ) ) ;
#90 = ORIENTED_EDGE ( 'NONE', *, *, #123, .T. ) ;
#91 = DIRECTION ( 'NONE',  ( 1.000000000000000000, 0.000000000000000000, 0.000000000000000000 ) ) ;
#92 = AXIS2_PLACEMENT_3D ( 'NONE', #65, #131, #148 ) ;
#93 = PRESENTATION_STYLE_ASSIGNMENT (( #23 ) ) ;
#94 = UNCERTAINTY_MEASURE_WITH_UNIT (LENGTH_MEASURE( 1.000000000000000082E-05 ), #197, 'distance_accuracy_value', 'NONE');
#95 = DIRECTION ( 'NONE',  ( 1.000000000000000000, 0.000000000000000000, 0.000000000000000000 ) ) ;
#96 = SURFACE_STYLE_FILL_AREA ( #126 ) ;
#97 = LENGTH_MEASURE_WITH_UNIT ( LENGTH_MEASURE( 0.02539999999999999897 ), #205 );
#98 = VERTEX_POINT ( 'NONE', #193 ) ;
#99 =( NAMED_UNIT ( * ) PLANE_ANGLE_UNIT ( ) SI_UNIT ( $, .RADIAN. ) );
#100 = AXIS2_PLACEMENT_3D ( 'NONE', #104, #95, #164 ) ;
#101 = EDGE_CURVE ( 'NONE', #154, #98, #175, .T. ) ;
#102 = DIRECTION ( 'NONE',  ( 0.000000000000000000, 0.000000000000000000, -1.000000000000000000 ) ) ;
#103 = ORIENTED_EDGE ( 'NONE', *, *, #204, .F. ) ;
#104 = CARTESIAN_POINT ( 'NONE',  ( 18.00000000000000000, 0.000000000000000000, 0.000000000000000000 ) ) ;
#105 = CARTESIAN_POINT ( 'NONE',  ( 18.00000000000000000, 0.000000000000000000, 0.000000000000000000 ) ) ;
#106 = AXIS2_PLACEMENT_3D ( 'NONE', #155, #20, #54 ) ;
#107 = PRODUCT ( 'WCP-1820 Rev1', 'WCP-1820 Rev1', '', ( #67 ) ) ;
#108 = CARTESIAN_POINT ( 'NONE',  ( 18.00000000000000000, 0.000000000000000000, 1.227000000000000091 ) ) ;
#109 = EDGE_LOOP ( 'NONE', ( #103, #169, #69, #140 ) ) ;
#110 = APPLICATION_PROTOCOL_DEFINITION ( 'draft international standard', 'automotive_design', 1998, #66 ) ;
#111 = STYLED_ITEM ( 'NONE', ( #47 ), #143 ) ;
#112 = ADVANCED_FACE ( 'NONE', ( #120, #56 ), #145, .F. ) ;
#113 = VERTEX_POINT ( 'NONE', #179 ) ;
#114 = DIRECTION ( 'NONE',  ( 0.000000000000000000, 0.000000000000000000, -1.000000000000000000 ) ) ;
#115 = CARTESIAN_POINT ( 'NONE',  ( 18.00000000000000000, 0.000000000000000000, 1.227000000000000091 ) ) ;
#116 = VECTOR ( 'NONE', #58, 39.37007874015748143 ) ;
#117 = ORIENTED_EDGE ( 'NONE', *, *, #216, .F. ) ;
#118 = CARTESIAN_POINT ( 'NONE',  ( -18.00000000000000000, 0.000000000000000000, 0.000000000000000000 ) ) ;
#119 = EDGE_CURVE ( 'NONE', #176, #98, #173, .T. ) ;
#120 = FACE_OUTER_BOUND ( 'NONE', #33, .T. ) ;
#121 = ORIENTED_EDGE ( 'NONE', *, *, #27, .F. ) ;
#122 = SURFACE_STYLE_USAGE ( .BOTH. , #144 ) ;
#123 = EDGE_CURVE ( 'NONE', #210, #83, #132, .T. ) ;
#124 =( CONVERSION_BASED_UNIT ( 'INCH', #215 ) LENGTH_UNIT ( ) NAMED_UNIT ( #40 ) );
#125 =( NAMED_UNIT ( * ) SI_UNIT ( $, .STERADIAN. ) SOLID_ANGLE_UNIT ( ) );
#126 = FILL_AREA_STYLE ('',( #28 ) ) ;
#127 = CARTESIAN_POINT ( 'NONE',  ( 18.00000000000000000, 1.454268073987482103E-16, -1.187500000000000000 ) ) ;
#128 = CARTESIAN_POINT ( 'NONE',  ( -18.00000000000000000, 1.454268073987482103E-16, -1.187500000000000000 ) ) ;
#129 = CARTESIAN_POINT ( 'NONE',  ( 18.00000000000000000, 1.502641622553802386E-16, -1.227000000000000091 ) ) ;
#130 = AXIS2_PLACEMENT_3D ( 'NONE', #222, #24, #61 ) ;
#131 = DIRECTION ( 'NONE',  ( 1.000000000000000000, 0.000000000000000000, 0.000000000000000000 ) ) ;
#132 = CIRCLE ( 'NONE', #49, 1.227000000000000091 ) ;
#133 = APPLICATION_PROTOCOL_DEFINITION ( 'draft international standard', 'automotive_design', 1998, #195 ) ;
#134 = ORIENTED_EDGE ( 'NONE', *, *, #119, .T. ) ;
#135 = DIRECTION ( 'NONE',  ( 1.000000000000000000, 0.000000000000000000, 0.000000000000000000 ) ) ;
#136 = FACE_OUTER_BOUND ( 'NONE', #53, .T. ) ;
#137 = DIRECTION ( 'NONE',  ( -1.000000000000000000, -0.000000000000000000, -0.000000000000000000 ) ) ;
#138 = STYLED_ITEM ( 'NONE', ( #93 ), #17 ) ;
#139 = DIMENSIONAL_EXPONENTS ( 1.000000000000000000, 0.000000000000000000, 0.000000000000000000, 0.000000000000000000, 0.000000000000000000, 0.000000000000000000, 0.000000000000000000 ) ;
#140 = ORIENTED_EDGE ( 'NONE', *, *, #86, .T. ) ;
#141 = CARTESIAN_POINT ( 'NONE',  ( -18.00000000000000000, 0.000000000000000000, 0.000000000000000000 ) ) ;
#142 = ORIENTED_EDGE ( 'NONE', *, *, #29, .F. ) ;
#143 = MANIFOLD_SOLID_BREP ( 'Boss-Extrude1', #172 ) ;
#144 = SURFACE_SIDE_STYLE ('',( #75 ) ) ;
#145 = PLANE ( 'NONE',  #161 ) ;
#146 = DIMENSIONAL_EXPONENTS ( 1.000000000000000000, 0.000000000000000000, 0.000000000000000000, 0.000000000000000000, 0.000000000000000000, 0.000000000000000000, 0.000000000000000000 ) ;
#147 = AXIS2_PLACEMENT_3D ( 'NONE', #89, #68, #181 ) ;
#148 = DIRECTION ( 'NONE',  ( 0.000000000000000000, 0.000000000000000000, -1.000000000000000000 ) ) ;
#149 = PRODUCT_DEFINITION_CONTEXT ( 'detailed design', #195, 'design' ) ;
#150 = CYLINDRICAL_SURFACE ( 'NONE', #36, 1.227000000000000091 ) ;
#151 = SHAPE_DEFINITION_REPRESENTATION ( #80, #17 ) ;
#152 = EDGE_LOOP ( 'NONE', ( #57, #1, #192, #14 ) ) ;
#153 = VERTEX_POINT ( 'NONE', #82 ) ;
#154 = VERTEX_POINT ( 'NONE', #7 ) ;
#155 = CARTESIAN_POINT ( 'NONE',  ( 18.00000000000000000, 0.000000000000000000, 0.000000000000000000 ) ) ;
#156 = EDGE_CURVE ( 'NONE', #88, #113, #21, .T. ) ;
#157 = ORIENTED_EDGE ( 'NONE', *, *, #213, .T. ) ;
#158 = FILL_AREA_STYLE_COLOUR ( '', #38 ) ;
#159 = CYLINDRICAL_SURFACE ( 'NONE', #52, 1.187500000000000000 ) ;
#160 = ADVANCED_FACE ( 'NONE', ( #13 ), #150, .T. ) ;
#161 = AXIS2_PLACEMENT_3D ( 'NONE', #118, #211, #6 ) ;
#162 = LINE ( 'NONE', #108, #185 ) ;
#163 =( GEOMETRIC_REPRESENTATION_CONTEXT ( 3 ) GLOBAL_UNCERTAINTY_ASSIGNED_CONTEXT ( ( #45 ) ) GLOBAL_UNIT_ASSIGNED_CONTEXT ( ( #124, #25, #125 ) ) REPRESENTATION_CONTEXT ( 'NONE', 'WORKASPACE' ) );
#164 = DIRECTION ( 'NONE',  ( 0.000000000000000000, 0.000000000000000000, -1.000000000000000000 ) ) ;
#165 = DIRECTION ( 'NONE',  ( -1.000000000000000000, -0.000000000000000000, -0.000000000000000000 ) ) ;
#166 = SURFACE_SIDE_STYLE ('',( #96 ) ) ;
#167 = ORIENTED_EDGE ( 'NONE', *, *, #71, .F. ) ;
#168 =( NAMED_UNIT ( * ) SI_UNIT ( $, .STERADIAN. ) SOLID_ANGLE_UNIT ( ) );
#169 = ORIENTED_EDGE ( 'NONE', *, *, #156, .F. ) ;
#170 = MECHANICAL_DESIGN_GEOMETRIC_PRESENTATION_REPRESENTATION (  '', ( #138 ), #31 ) ;
#171 = EDGE_LOOP ( 'NONE', ( #121, #142 ) ) ;
#172 = CLOSED_SHELL ( 'NONE', ( #182, #160, #42, #112, #190, #60 ) ) ;
#173 = CIRCLE ( 'NONE', #218, 1.187500000000000000 ) ;
#174 = FACE_BOUND ( 'NONE', #171, .T. ) ;
#175 = LINE ( 'NONE', #59, #116 ) ;
#176 = VERTEX_POINT ( 'NONE', #128 ) ;
#177 = DIRECTION ( 'NONE',  ( 1.000000000000000000, 0.000000000000000000, 0.000000000000000000 ) ) ;
#178 = EDGE_LOOP ( 'NONE', ( #206, #186 ) ) ;
#179 = CARTESIAN_POINT ( 'NONE',  ( 18.00000000000000000, 1.502641622553802386E-16, -1.227000000000000091 ) ) ;
#180 = PRESENTATION_LAYER_ASSIGNMENT (  '', '', ( #111 ) ) ;
#181 = DIRECTION ( 'NONE',  ( 0.000000000000000000, 0.000000000000000000, -1.000000000000000000 ) ) ;
#182 = ADVANCED_FACE ( 'NONE', ( #183 ), #200, .F. ) ;
#183 = FACE_OUTER_BOUND ( 'NONE', #152, .T. ) ;
#184 = CIRCLE ( 'NONE', #106, 1.227000000000000091 ) ;
#185 = VECTOR ( 'NONE', #9, 39.37007874015748143 ) ;
#186 = ORIENTED_EDGE ( 'NONE', *, *, #71, .T. ) ;
#187 = DIRECTION ( 'NONE',  ( 0.000000000000000000, 0.000000000000000000, 1.000000000000000000 ) ) ;
#188 = CIRCLE ( 'NONE', #92, 1.187500000000000000 ) ;
#189 = DIRECTION ( 'NONE',  ( 1.000000000000000000, 0.000000000000000000, 0.000000000000000000 ) ) ;
#190 = ADVANCED_FACE ( 'NONE', ( #11 ), #217, .T. ) ;
#191 = DIRECTION ( 'NONE',  ( 0.000000000000000000, 0.000000000000000000, -1.000000000000000000 ) ) ;
#192 = ORIENTED_EDGE ( 'NONE', *, *, #213, .F. ) ;
#193 = CARTESIAN_POINT ( 'NONE',  ( -18.00000000000000000, 0.000000000000000000, 1.187500000000000000 ) ) ;
#194 = CARTESIAN_POINT ( 'NONE',  ( -18.00000000000000000, 0.000000000000000000, 1.227000000000000091 ) ) ;
#195 = APPLICATION_CONTEXT ( 'automotive_design' ) ;
#196 = DIRECTION ( 'NONE',  ( 1.000000000000000000, 0.000000000000000000, 0.000000000000000000 ) ) ;
#197 =( CONVERSION_BASED_UNIT ( 'INCH', #199 ) LENGTH_UNIT ( ) NAMED_UNIT ( #146 ) );
#198 = CIRCLE ( 'NONE', #147, 1.187500000000000000 ) ;
#199 = LENGTH_MEASURE_WITH_UNIT ( LENGTH_MEASURE( 0.02539999999999999897 ), #201 );
#200 = CYLINDRICAL_SURFACE ( 'NONE', #15, 1.187500000000000000 ) ;
#201 =( LENGTH_UNIT ( ) NAMED_UNIT ( * ) SI_UNIT ( $, .METRE. ) );
#202 = EDGE_CURVE ( 'NONE', #153, #176, #63, .T. ) ;
#203 = MECHANICAL_DESIGN_GEOMETRIC_PRESENTATION_REPRESENTATION (  '', ( #111 ), #163 ) ;
#204 = EDGE_CURVE ( 'NONE', #113, #210, #26, .T. ) ;
#205 =( LENGTH_UNIT ( ) NAMED_UNIT ( * ) SI_UNIT ( $, .METRE. ) );
#206 = ORIENTED_EDGE ( 'NONE', *, *, #156, .T. ) ;
#207 = ORIENTED_EDGE ( 'NONE', *, *, #202, .F. ) ;
#208 =( GEOMETRIC_REPRESENTATION_CONTEXT ( 3 ) GLOBAL_UNCERTAINTY_ASSIGNED_CONTEXT ( ( #94 ) ) GLOBAL_UNIT_ASSIGNED_CONTEXT ( ( #197, #44, #50 ) ) REPRESENTATION_CONTEXT ( 'NONE', 'WORKASPACE' ) );
#209 = DIRECTION ( 'NONE',  ( 0.000000000000000000, 0.000000000000000000, 1.000000000000000000 ) ) ;
#210 = VERTEX_POINT ( 'NONE', #48 ) ;
#211 = DIRECTION ( 'NONE',  ( 1.000000000000000000, 0.000000000000000000, 0.000000000000000000 ) ) ;
#212 = CARTESIAN_POINT ( 'NONE',  ( -18.00000000000000000, 0.000000000000000000, 0.000000000000000000 ) ) ;
#213 = EDGE_CURVE ( 'NONE', #98, #176, #188, .T. ) ;
#214 = DIRECTION ( 'NONE',  ( -1.000000000000000000, -0.000000000000000000, -0.000000000000000000 ) ) ;
#215 = LENGTH_MEASURE_WITH_UNIT ( LENGTH_MEASURE( 0.02539999999999999897 ), #46 );
#216 = EDGE_CURVE ( 'NONE', #88, #83, #162, .T. ) ;
#217 = CYLINDRICAL_SURFACE ( 'NONE', #130, 1.227000000000000091 ) ;
#218 = AXIS2_PLACEMENT_3D ( 'NONE', #212, #196, #191 ) ;
#219 = CARTESIAN_POINT ( 'NONE',  ( 18.00000000000000000, 0.000000000000000000, 0.000000000000000000 ) ) ;
#220 = PRODUCT_DEFINITION ( 'UNKNOWN', '', #19, #149 ) ;
#221 = AXIS2_PLACEMENT_3D ( 'NONE', #34, #30, #84 ) ;
#222 = CARTESIAN_POINT ( 'NONE',  ( 18.00000000000000000, 0.000000000000000000, 0.000000000000000000 ) ) ;
#223 =( CONVERSION_BASED_UNIT ( 'INCH', #97 ) LENGTH_UNIT ( ) NAMED_UNIT ( #139 ) );
ENDSEC;
END-ISO-10303-21;
