ISO-10303-21;
HEADER;
FILE_DESCRIPTION (( 'STEP AP214' ),
    '1' );
FILE_NAME ('WCP-1819 Rev1.step',
    '2025-04-10T00:00:35',
    ( '' ),
    ( '' ),
    'SwSTEP 2.0',
    'SolidWorks 2022',
    '' );
FILE_SCHEMA (( 'AUTOMOTIVE_DESIGN' ));
ENDSEC;

DATA;
#1 = APPLICATION_PROTOCOL_DEFINITION ( 'draft international standard', 'automotive_design', 1998, #197 ) ;
#2 = AXIS2_PLACEMENT_3D ( 'NONE', #162, #79, #127 ) ;
#3 = VERTEX_POINT ( 'NONE', #200 ) ;
#4 = ORIENTED_EDGE ( 'NONE', *, *, #80, .F. ) ;
#5 = MECHANICAL_DESIGN_GEOMETRIC_PRESENTATION_REPRESENTATION (  '', ( #137 ), #51 ) ;
#6 = VERTEX_POINT ( 'NONE', #106 ) ;
#7 = CIRCLE ( 'NONE', #132, 0.9375000000000000000 ) ;
#8 = CYLINDRICAL_SURFACE ( 'NONE', #76, 0.9375000000000000000 ) ;
#9 = SURFACE_STYLE_FILL_AREA ( #163 ) ;
#10 = CARTESIAN_POINT ( 'NONE',  ( -18.00000000000000000, 0.000000000000000000, 0.000000000000000000 ) ) ;
#11 = AXIS2_PLACEMENT_3D ( 'NONE', #64, #112, #19 ) ;
#12 = FACE_BOUND ( 'NONE', #173, .T. ) ;
#13 = ORIENTED_EDGE ( 'NONE', *, *, #204, .F. ) ;
#14 = DIRECTION ( 'NONE',  ( -1.000000000000000000, -0.000000000000000000, -0.000000000000000000 ) ) ;
#15 = EDGE_CURVE ( 'NONE', #134, #196, #40, .T. ) ;
#16 =( NAMED_UNIT ( * ) SI_UNIT ( $, .STERADIAN. ) SOLID_ANGLE_UNIT ( ) );
#17 = CARTESIAN_POINT ( 'NONE',  ( 18.00000000000000000, 0.000000000000000000, 0.9375000000000000000 ) ) ;
#18 = VECTOR ( 'NONE', #14, 39.37007874015748143 ) ;
#19 = DIRECTION ( 'NONE',  ( 0.000000000000000000, 0.000000000000000000, 1.000000000000000000 ) ) ;
#20 = ORIENTED_EDGE ( 'NONE', *, *, #179, .T. ) ;
#21 = VECTOR ( 'NONE', #149, 39.37007874015748143 ) ;
#22 = EDGE_LOOP ( 'NONE', ( #4, #178 ) ) ;
#23 = CARTESIAN_POINT ( 'NONE',  ( 18.00000000000000000, 0.000000000000000000, 0.000000000000000000 ) ) ;
#24 = VERTEX_POINT ( 'NONE', #48 ) ;
#25 = VECTOR ( 'NONE', #131, 39.37007874015748143 ) ;
#26 = CARTESIAN_POINT ( 'NONE',  ( -18.00000000000000000, 1.148106374200643740E-16, -0.9375000000000000000 ) ) ;
#27 = PRODUCT_DEFINITION_SHAPE ( 'NONE', 'NONE',  #124 ) ;
#28 = LINE ( 'NONE', #199, #18 ) ;
#29 = DIRECTION ( 'NONE',  ( 0.000000000000000000, 0.000000000000000000, 1.000000000000000000 ) ) ;
#30 = AXIS2_PLACEMENT_3D ( 'NONE', #78, #126, #32 ) ;
#31 = FACE_OUTER_BOUND ( 'NONE', #69, .T. ) ;
#32 = DIRECTION ( 'NONE',  ( 0.000000000000000000, 0.000000000000000000, -1.000000000000000000 ) ) ;
#33 = SURFACE_STYLE_FILL_AREA ( #98 ) ;
#34 = CIRCLE ( 'NONE', #72, 0.9769999999999999796 ) ;
#35 = DIRECTION ( 'NONE',  ( 1.000000000000000000, 0.000000000000000000, 0.000000000000000000 ) ) ;
#36 =( CONVERSION_BASED_UNIT ( 'INCH', #96 ) LENGTH_UNIT ( ) NAMED_UNIT ( #82 ) );
#37 = AXIS2_PLACEMENT_3D ( 'NONE', #189, #35, #144 ) ;
#38 = UNCERTAINTY_MEASURE_WITH_UNIT (LENGTH_MEASURE( 1.000000000000000082E-05 ), #62, 'distance_accuracy_value', 'NONE');
#39 = ORIENTED_EDGE ( 'NONE', *, *, #60, .T. ) ;
#40 = CIRCLE ( 'NONE', #30, 0.9769999999999999796 ) ;
#41 = CIRCLE ( 'NONE', #2, 0.9375000000000000000 ) ;
#42 = ORIENTED_EDGE ( 'NONE', *, *, #15, .F. ) ;
#43 = ORIENTED_EDGE ( 'NONE', *, *, #15, .T. ) ;
#44 = FACE_OUTER_BOUND ( 'NONE', #175, .T. ) ;
#45 = ORIENTED_EDGE ( 'NONE', *, *, #68, .T. ) ;
#46 = DIRECTION ( 'NONE',  ( 0.000000000000000000, 0.000000000000000000, -1.000000000000000000 ) ) ;
#47 = PRODUCT ( 'WCP-1819 Rev1', 'WCP-1819 Rev1', '', ( #172 ) ) ;
#48 = CARTESIAN_POINT ( 'NONE',  ( -18.00000000000000000, 0.000000000000000000, 0.9375000000000000000 ) ) ;
#49 = CYLINDRICAL_SURFACE ( 'NONE', #101, 0.9769999999999999796 ) ;
#50 = FACE_OUTER_BOUND ( 'NONE', #181, .T. ) ;
#51 =( GEOMETRIC_REPRESENTATION_CONTEXT ( 3 ) GLOBAL_UNCERTAINTY_ASSIGNED_CONTEXT ( ( #38 ) ) GLOBAL_UNIT_ASSIGNED_CONTEXT ( ( #62, #141, #138 ) ) REPRESENTATION_CONTEXT ( 'NONE', 'WORKASPACE' ) );
#52 = CIRCLE ( 'NONE', #88, 0.9375000000000000000 ) ;
#53 = FACE_OUTER_BOUND ( 'NONE', #104, .T. ) ;
#54 = MECHANICAL_DESIGN_GEOMETRIC_PRESENTATION_REPRESENTATION (  '', ( #115 ), #190 ) ;
#55 = ORIENTED_EDGE ( 'NONE', *, *, #209, .F. ) ;
#56 = MANIFOLD_SOLID_BREP ( 'Boss-Extrude1', #75 ) ;
#57 = CYLINDRICAL_SURFACE ( 'NONE', #171, 0.9375000000000000000 ) ;
#58 = CARTESIAN_POINT ( 'NONE',  ( -18.00000000000000000, 1.196479922766964023E-16, -0.9769999999999999796 ) ) ;
#59 = AXIS2_PLACEMENT_3D ( 'NONE', #63, #81, #223 ) ;
#60 = EDGE_CURVE ( 'NONE', #6, #3, #34, .T. ) ;
#61 = CARTESIAN_POINT ( 'NONE',  ( -18.00000000000000000, 0.000000000000000000, 0.000000000000000000 ) ) ;
#62 =( CONVERSION_BASED_UNIT ( 'INCH', #159 ) LENGTH_UNIT ( ) NAMED_UNIT ( #191 ) );
#63 = CARTESIAN_POINT ( 'NONE',  ( 18.00000000000000000, 0.000000000000000000, 0.000000000000000000 ) ) ;
#64 = CARTESIAN_POINT ( 'NONE',  ( 18.00000000000000000, 0.000000000000000000, 0.000000000000000000 ) ) ;
#65 = ADVANCED_FACE ( 'NONE', ( #183 ), #8, .F. ) ;
#66 = CARTESIAN_POINT ( 'NONE',  ( 18.00000000000000000, 0.000000000000000000, 0.9375000000000000000 ) ) ;
#67 = ORIENTED_EDGE ( 'NONE', *, *, #214, .F. ) ;
#68 = EDGE_CURVE ( 'NONE', #136, #85, #28, .T. ) ;
#69 = EDGE_LOOP ( 'NONE', ( #135, #118, #103, #154 ) ) ;
#70 = ORIENTED_EDGE ( 'NONE', *, *, #180, .T. ) ;
#71 = ADVANCED_FACE ( 'NONE', ( #216 ), #49, .T. ) ;
#72 = AXIS2_PLACEMENT_3D ( 'NONE', #95, #109, #213 ) ;
#73 = DIRECTION ( 'NONE',  ( 0.000000000000000000, 0.000000000000000000, 1.000000000000000000 ) ) ;
#74 = CARTESIAN_POINT ( 'NONE',  ( 18.00000000000000000, 0.000000000000000000, 0.000000000000000000 ) ) ;
#75 = CLOSED_SHELL ( 'NONE', ( #65, #195, #218, #169, #71, #86 ) ) ;
#76 = AXIS2_PLACEMENT_3D ( 'NONE', #74, #92, #73 ) ;
#77 = PLANE ( 'NONE',  #182 ) ;
#78 = CARTESIAN_POINT ( 'NONE',  ( -18.00000000000000000, 0.000000000000000000, 0.000000000000000000 ) ) ;
#79 = DIRECTION ( 'NONE',  ( 1.000000000000000000, 0.000000000000000000, 0.000000000000000000 ) ) ;
#80 = EDGE_CURVE ( 'NONE', #211, #136, #52, .T. ) ;
#81 = DIRECTION ( 'NONE',  ( 1.000000000000000000, 0.000000000000000000, 0.000000000000000000 ) ) ;
#82 = DIMENSIONAL_EXPONENTS ( 1.000000000000000000, 0.000000000000000000, 0.000000000000000000, 0.000000000000000000, 0.000000000000000000, 0.000000000000000000, 0.000000000000000000 ) ;
#83 = FACE_BOUND ( 'NONE', #22, .T. ) ;
#84 = DIRECTION ( 'NONE',  ( 1.000000000000000000, 0.000000000000000000, 0.000000000000000000 ) ) ;
#85 = VERTEX_POINT ( 'NONE', #26 ) ;
#86 = ADVANCED_FACE ( 'NONE', ( #31 ), #57, .F. ) ;
#87 = EDGE_LOOP ( 'NONE', ( #116, #45, #133, #13 ) ) ;
#88 = AXIS2_PLACEMENT_3D ( 'NONE', #23, #186, #185 ) ;
#89 = CARTESIAN_POINT ( 'NONE',  ( -18.00000000000000000, 0.000000000000000000, 0.000000000000000000 ) ) ;
#90 = EDGE_LOOP ( 'NONE', ( #93, #67, #108, #152 ) ) ;
#91 = CARTESIAN_POINT ( 'NONE',  ( 18.00000000000000000, 0.000000000000000000, 0.000000000000000000 ) ) ;
#92 = DIRECTION ( 'NONE',  ( -1.000000000000000000, -0.000000000000000000, -0.000000000000000000 ) ) ;
#93 = ORIENTED_EDGE ( 'NONE', *, *, #129, .F. ) ;
#94 = CARTESIAN_POINT ( 'NONE',  ( 18.00000000000000000, 0.000000000000000000, 0.000000000000000000 ) ) ;
#95 = CARTESIAN_POINT ( 'NONE',  ( 18.00000000000000000, 0.000000000000000000, 0.000000000000000000 ) ) ;
#96 = LENGTH_MEASURE_WITH_UNIT ( LENGTH_MEASURE( 0.02539999999999999897 ), #208 );
#97 = FILL_AREA_STYLE_COLOUR ( '', #110 ) ;
#98 = FILL_AREA_STYLE ('',( #192 ) ) ;
#99 = DIMENSIONAL_EXPONENTS ( 1.000000000000000000, 0.000000000000000000, 0.000000000000000000, 0.000000000000000000, 0.000000000000000000, 0.000000000000000000, 0.000000000000000000 ) ;
#100 = CYLINDRICAL_SURFACE ( 'NONE', #11, 0.9769999999999999796 ) ;
#101 = AXIS2_PLACEMENT_3D ( 'NONE', #91, #215, #140 ) ;
#102 = CARTESIAN_POINT ( 'NONE',  ( 0.000000000000000000, 0.000000000000000000, 0.000000000000000000 ) ) ;
#103 = ORIENTED_EDGE ( 'NONE', *, *, #204, .T. ) ;
#104 = EDGE_LOOP ( 'NONE', ( #120, #39 ) ) ;
#105 = AXIS2_PLACEMENT_3D ( 'NONE', #102, #151, #84 ) ;
#106 = CARTESIAN_POINT ( 'NONE',  ( 18.00000000000000000, 1.196479922766964023E-16, -0.9769999999999999796 ) ) ;
#107 = DIRECTION ( 'NONE',  ( 1.000000000000000000, 0.000000000000000000, 0.000000000000000000 ) ) ;
#108 = ORIENTED_EDGE ( 'NONE', *, *, #209, .T. ) ;
#109 = DIRECTION ( 'NONE',  ( 1.000000000000000000, 0.000000000000000000, 0.000000000000000000 ) ) ;
#110 = COLOUR_RGB ( '',1.000000000000000000, 1.000000000000000000, 1.000000000000000000 ) ;
#111 = LINE ( 'NONE', #222, #21 ) ;
#112 = DIRECTION ( 'NONE',  ( -1.000000000000000000, -0.000000000000000000, -0.000000000000000000 ) ) ;
#113 = SURFACE_STYLE_USAGE ( .BOTH. , #221 ) ;
#114 = EDGE_CURVE ( 'NONE', #136, #211, #41, .T. ) ;
#115 = STYLED_ITEM ( 'NONE', ( #193 ), #147 ) ;
#116 = ORIENTED_EDGE ( 'NONE', *, *, #80, .T. ) ;
#117 = APPLICATION_CONTEXT ( 'automotive_design' ) ;
#118 = ORIENTED_EDGE ( 'NONE', *, *, #114, .T. ) ;
#119 = PRODUCT_DEFINITION_CONTEXT ( 'detailed design', #197, 'design' ) ;
#120 = ORIENTED_EDGE ( 'NONE', *, *, #214, .T. ) ;
#121 = CIRCLE ( 'NONE', #128, 0.9375000000000000000 ) ;
#122 = CARTESIAN_POINT ( 'NONE',  ( 18.00000000000000000, 1.148106374200643740E-16, -0.9375000000000000000 ) ) ;
#123 = DIRECTION ( 'NONE',  ( 0.000000000000000000, 0.000000000000000000, -1.000000000000000000 ) ) ;
#124 = PRODUCT_DEFINITION ( 'UNKNOWN', '', #194, #119 ) ;
#125 = DIRECTION ( 'NONE',  ( 1.000000000000000000, 0.000000000000000000, 0.000000000000000000 ) ) ;
#126 = DIRECTION ( 'NONE',  ( 1.000000000000000000, 0.000000000000000000, 0.000000000000000000 ) ) ;
#127 = DIRECTION ( 'NONE',  ( 0.000000000000000000, 0.000000000000000000, -1.000000000000000000 ) ) ;
#128 = AXIS2_PLACEMENT_3D ( 'NONE', #61, #125, #201 ) ;
#129 = EDGE_CURVE ( 'NONE', #6, #134, #161, .T. ) ;
#130 = APPLICATION_PROTOCOL_DEFINITION ( 'draft international standard', 'automotive_design', 1998, #117 ) ;
#131 = DIRECTION ( 'NONE',  ( -1.000000000000000000, -0.000000000000000000, -0.000000000000000000 ) ) ;
#132 = AXIS2_PLACEMENT_3D ( 'NONE', #10, #142, #123 ) ;
#133 = ORIENTED_EDGE ( 'NONE', *, *, #180, .F. ) ;
#134 = VERTEX_POINT ( 'NONE', #58 ) ;
#135 = ORIENTED_EDGE ( 'NONE', *, *, #68, .F. ) ;
#136 = VERTEX_POINT ( 'NONE', #122 ) ;
#137 = STYLED_ITEM ( 'NONE', ( #205 ), #56 ) ;
#138 =( NAMED_UNIT ( * ) SI_UNIT ( $, .STERADIAN. ) SOLID_ANGLE_UNIT ( ) );
#139 = UNCERTAINTY_MEASURE_WITH_UNIT (LENGTH_MEASURE( 1.000000000000000082E-05 ), #206, 'distance_accuracy_value', 'NONE');
#140 = DIRECTION ( 'NONE',  ( 0.000000000000000000, 0.000000000000000000, 1.000000000000000000 ) ) ;
#141 =( NAMED_UNIT ( * ) PLANE_ANGLE_UNIT ( ) SI_UNIT ( $, .RADIAN. ) );
#142 = DIRECTION ( 'NONE',  ( 1.000000000000000000, 0.000000000000000000, 0.000000000000000000 ) ) ;
#143 = DIRECTION ( 'NONE',  ( 1.000000000000000000, 0.000000000000000000, 0.000000000000000000 ) ) ;
#144 = DIRECTION ( 'NONE',  ( 0.000000000000000000, 0.000000000000000000, -1.000000000000000000 ) ) ;
#145 = PRESENTATION_LAYER_ASSIGNMENT (  '', '', ( #115 ) ) ;
#146 =( NAMED_UNIT ( * ) SI_UNIT ( $, .STERADIAN. ) SOLID_ANGLE_UNIT ( ) );
#147 = ADVANCED_BREP_SHAPE_REPRESENTATION ( 'WCP-1819 Rev1', ( #56, #105 ), #176 ) ;
#148 = CARTESIAN_POINT ( 'NONE',  ( -18.00000000000000000, 0.000000000000000000, 0.9769999999999999796 ) ) ;
#149 = DIRECTION ( 'NONE',  ( -1.000000000000000000, -0.000000000000000000, -0.000000000000000000 ) ) ;
#150 = PRODUCT_RELATED_PRODUCT_CATEGORY ( 'part', '', ( #47 ) ) ;
#151 = DIRECTION ( 'NONE',  ( 0.000000000000000000, 0.000000000000000000, 1.000000000000000000 ) ) ;
#152 = ORIENTED_EDGE ( 'NONE', *, *, #174, .T. ) ;
#153 = VECTOR ( 'NONE', #160, 39.37007874015748143 ) ;
#154 = ORIENTED_EDGE ( 'NONE', *, *, #179, .F. ) ;
#155 = ORIENTED_EDGE ( 'NONE', *, *, #129, .T. ) ;
#156 = CIRCLE ( 'NONE', #37, 0.9769999999999999796 ) ;
#157 = DIRECTION ( 'NONE',  ( -1.000000000000000000, -0.000000000000000000, -0.000000000000000000 ) ) ;
#158 = CARTESIAN_POINT ( 'NONE',  ( 18.00000000000000000, 1.196479922766964023E-16, -0.9769999999999999796 ) ) ;
#159 = LENGTH_MEASURE_WITH_UNIT ( LENGTH_MEASURE( 0.02539999999999999897 ), #219 );
#160 = DIRECTION ( 'NONE',  ( -1.000000000000000000, -0.000000000000000000, -0.000000000000000000 ) ) ;
#161 = LINE ( 'NONE', #158, #153 ) ;
#162 = CARTESIAN_POINT ( 'NONE',  ( 18.00000000000000000, 0.000000000000000000, 0.000000000000000000 ) ) ;
#163 = FILL_AREA_STYLE ('',( #97 ) ) ;
#164 =( LENGTH_UNIT ( ) NAMED_UNIT ( * ) SI_UNIT ( $, .METRE. ) );
#165 =( NAMED_UNIT ( * ) PLANE_ANGLE_UNIT ( ) SI_UNIT ( $, .RADIAN. ) );
#166 = LINE ( 'NONE', #17, #25 ) ;
#167 = LENGTH_MEASURE_WITH_UNIT ( LENGTH_MEASURE( 0.02539999999999999897 ), #164 );
#168 = PLANE ( 'NONE',  #59 ) ;
#169 = ADVANCED_FACE ( 'NONE', ( #44, #12 ), #77, .F. ) ;
#170 = PRESENTATION_LAYER_ASSIGNMENT (  '', '', ( #137 ) ) ;
#171 = AXIS2_PLACEMENT_3D ( 'NONE', #94, #157, #29 ) ;
#172 = PRODUCT_CONTEXT ( 'NONE', #117, 'mechanical' ) ;
#173 = EDGE_LOOP ( 'NONE', ( #70, #20 ) ) ;
#174 = EDGE_CURVE ( 'NONE', #196, #134, #207, .T. ) ;
#175 = EDGE_LOOP ( 'NONE', ( #198, #42 ) ) ;
#176 =( GEOMETRIC_REPRESENTATION_CONTEXT ( 3 ) GLOBAL_UNCERTAINTY_ASSIGNED_CONTEXT ( ( #139 ) ) GLOBAL_UNIT_ASSIGNED_CONTEXT ( ( #206, #188, #146 ) ) REPRESENTATION_CONTEXT ( 'NONE', 'WORKASPACE' ) );
#177 = SHAPE_DEFINITION_REPRESENTATION ( #27, #147 ) ;
#178 = ORIENTED_EDGE ( 'NONE', *, *, #114, .F. ) ;
#179 = EDGE_CURVE ( 'NONE', #85, #24, #7, .T. ) ;
#180 = EDGE_CURVE ( 'NONE', #24, #85, #121, .T. ) ;
#181 = EDGE_LOOP ( 'NONE', ( #210, #155, #43, #55 ) ) ;
#182 = AXIS2_PLACEMENT_3D ( 'NONE', #89, #143, #46 ) ;
#183 = FACE_OUTER_BOUND ( 'NONE', #87, .T. ) ;
#184 = DIRECTION ( 'NONE',  ( 0.000000000000000000, 0.000000000000000000, -1.000000000000000000 ) ) ;
#185 = DIRECTION ( 'NONE',  ( 0.000000000000000000, 0.000000000000000000, -1.000000000000000000 ) ) ;
#186 = DIRECTION ( 'NONE',  ( 1.000000000000000000, 0.000000000000000000, 0.000000000000000000 ) ) ;
#187 = SURFACE_SIDE_STYLE ('',( #9 ) ) ;
#188 =( NAMED_UNIT ( * ) PLANE_ANGLE_UNIT ( ) SI_UNIT ( $, .RADIAN. ) );
#189 = CARTESIAN_POINT ( 'NONE',  ( 18.00000000000000000, 0.000000000000000000, 0.000000000000000000 ) ) ;
#190 =( GEOMETRIC_REPRESENTATION_CONTEXT ( 3 ) GLOBAL_UNCERTAINTY_ASSIGNED_CONTEXT ( ( #212 ) ) GLOBAL_UNIT_ASSIGNED_CONTEXT ( ( #36, #165, #16 ) ) REPRESENTATION_CONTEXT ( 'NONE', 'WORKASPACE' ) );
#191 = DIMENSIONAL_EXPONENTS ( 1.000000000000000000, 0.000000000000000000, 0.000000000000000000, 0.000000000000000000, 0.000000000000000000, 0.000000000000000000, 0.000000000000000000 ) ;
#192 = FILL_AREA_STYLE_COLOUR ( '', #220 ) ;
#193 = PRESENTATION_STYLE_ASSIGNMENT (( #113 ) ) ;
#194 = PRODUCT_DEFINITION_FORMATION_WITH_SPECIFIED_SOURCE ( 'ANY', '', #47, .NOT_KNOWN. ) ;
#195 = ADVANCED_FACE ( 'NONE', ( #50 ), #100, .T. ) ;
#196 = VERTEX_POINT ( 'NONE', #148 ) ;
#197 = APPLICATION_CONTEXT ( 'automotive_design' ) ;
#198 = ORIENTED_EDGE ( 'NONE', *, *, #174, .F. ) ;
#199 = CARTESIAN_POINT ( 'NONE',  ( 18.00000000000000000, 1.148106374200643740E-16, -0.9375000000000000000 ) ) ;
#200 = CARTESIAN_POINT ( 'NONE',  ( 18.00000000000000000, 0.000000000000000000, 0.9769999999999999796 ) ) ;
#201 = DIRECTION ( 'NONE',  ( 0.000000000000000000, 0.000000000000000000, -1.000000000000000000 ) ) ;
#202 = SURFACE_STYLE_USAGE ( .BOTH. , #187 ) ;
#203 = AXIS2_PLACEMENT_3D ( 'NONE', #217, #107, #184 ) ;
#204 = EDGE_CURVE ( 'NONE', #211, #24, #166, .T. ) ;
#205 = PRESENTATION_STYLE_ASSIGNMENT (( #202 ) ) ;
#206 =( CONVERSION_BASED_UNIT ( 'INCH', #167 ) LENGTH_UNIT ( ) NAMED_UNIT ( #99 ) );
#207 = CIRCLE ( 'NONE', #203, 0.9769999999999999796 ) ;
#208 =( LENGTH_UNIT ( ) NAMED_UNIT ( * ) SI_UNIT ( $, .METRE. ) );
#209 = EDGE_CURVE ( 'NONE', #3, #196, #111, .T. ) ;
#210 = ORIENTED_EDGE ( 'NONE', *, *, #60, .F. ) ;
#211 = VERTEX_POINT ( 'NONE', #66 ) ;
#212 = UNCERTAINTY_MEASURE_WITH_UNIT (LENGTH_MEASURE( 1.000000000000000082E-05 ), #36, 'distance_accuracy_value', 'NONE');
#213 = DIRECTION ( 'NONE',  ( 0.000000000000000000, 0.000000000000000000, -1.000000000000000000 ) ) ;
#214 = EDGE_CURVE ( 'NONE', #3, #6, #156, .T. ) ;
#215 = DIRECTION ( 'NONE',  ( -1.000000000000000000, -0.000000000000000000, -0.000000000000000000 ) ) ;
#216 = FACE_OUTER_BOUND ( 'NONE', #90, .T. ) ;
#217 = CARTESIAN_POINT ( 'NONE',  ( -18.00000000000000000, 0.000000000000000000, 0.000000000000000000 ) ) ;
#218 = ADVANCED_FACE ( 'NONE', ( #53, #83 ), #168, .T. ) ;
#219 =( LENGTH_UNIT ( ) NAMED_UNIT ( * ) SI_UNIT ( $, .METRE. ) );
#220 = COLOUR_RGB ( '',1.000000000000000000, 1.000000000000000000, 1.000000000000000000 ) ;
#221 = SURFACE_SIDE_STYLE ('',( #33 ) ) ;
#222 = CARTESIAN_POINT ( 'NONE',  ( 18.00000000000000000, 0.000000000000000000, 0.9769999999999999796 ) ) ;
#223 = DIRECTION ( 'NONE',  ( 0.000000000000000000, 0.000000000000000000, -1.000000000000000000 ) ) ;
ENDSEC;
END-ISO-10303-21;
