ISO-10303-21;
HEADER;
FILE_DESCRIPTION (( 'STEP AP214' ),
    '1' );
FILE_NAME ('WCP-1585 Rev1.STEP',
    '2024-05-10T00:10:25',
    ( '' ),
    ( '' ),
    'SwSTEP 2.0',
    'SolidWorks 2022',
    '' );
FILE_SCHEMA (( 'AUTOMOTIVE_DESIGN' ));
ENDSEC;

DATA;
#1 = VECTOR ( 'NONE', #244, 39.37007874015748143 ) ;
#2 = PLANE ( 'NONE',  #100 ) ;
#3 = PLANE ( 'NONE',  #162 ) ;
#4 = UNCERTAINTY_MEASURE_WITH_UNIT (LENGTH_MEASURE( 1.000000000000000082E-05 ), #145, 'distance_accuracy_value', 'NONE');
#5 = CARTESIAN_POINT ( 'NONE',  ( 23.50000000000000000, 0.9999999999999998890, 0.9999999999999998890 ) ) ;
#6 = EDGE_LOOP ( 'NONE', ( #120, #254, #224, #327 ) ) ;
#7 = MECHANICAL_DESIGN_GEOMETRIC_PRESENTATION_REPRESENTATION (  '', ( #342 ), #52 ) ;
#8 = CARTESIAN_POINT ( 'NONE',  ( 23.50000000000000000, 0.9062499999999998890, -0.9062499999999998890 ) ) ;
#9 = EDGE_LOOP ( 'NONE', ( #176, #10, #220, #229 ) ) ;
#10 = ORIENTED_EDGE ( 'NONE', *, *, #269, .F. ) ;
#11 = FILL_AREA_STYLE_COLOUR ( '', #96 ) ;
#12 =( GEOMETRIC_REPRESENTATION_CONTEXT ( 3 ) GLOBAL_UNCERTAINTY_ASSIGNED_CONTEXT ( ( #84 ) ) GLOBAL_UNIT_ASSIGNED_CONTEXT ( ( #255, #307, #119 ) ) REPRESENTATION_CONTEXT ( 'NONE', 'WORKASPACE' ) );
#13 = SHAPE_DEFINITION_REPRESENTATION ( #143, #30 ) ;
#14 = ADVANCED_FACE ( 'NONE', ( #207 ), #228, .F. ) ;
#15 = FACE_OUTER_BOUND ( 'NONE', #167, .T. ) ;
#16 = LINE ( 'NONE', #308, #288 ) ;
#17 = DIRECTION ( 'NONE',  ( -1.000000000000000000, -0.000000000000000000, -0.000000000000000000 ) ) ;
#18 = PRODUCT_RELATED_PRODUCT_CATEGORY ( 'part', '', ( #200 ) ) ;
#19 = VECTOR ( 'NONE', #125, 39.37007874015748143 ) ;
#20 = VERTEX_POINT ( 'NONE', #179 ) ;
#21 =( NAMED_UNIT ( * ) SI_UNIT ( $, .STERADIAN. ) SOLID_ANGLE_UNIT ( ) );
#22 = VECTOR ( 'NONE', #74, 39.37007874015748143 ) ;
#23 = FACE_OUTER_BOUND ( 'NONE', #43, .T. ) ;
#24 = CARTESIAN_POINT ( 'NONE',  ( 23.50000000000000000, -1.000000000000000000, 0.9999999999999998890 ) ) ;
#25 = ADVANCED_FACE ( 'NONE', ( #15, #309 ), #286, .T. ) ;
#26 = CARTESIAN_POINT ( 'NONE',  ( 23.50000000000000000, -1.000000000000000000, 0.9999999999999998890 ) ) ;
#27 = VERTEX_POINT ( 'NONE', #257 ) ;
#28 = PLANE ( 'NONE',  #148 ) ;
#29 = ORIENTED_EDGE ( 'NONE', *, *, #329, .F. ) ;
#30 = ADVANCED_BREP_SHAPE_REPRESENTATION ( 'WCP-1585 Rev1', ( #77, #73 ), #12 ) ;
#31 = LINE ( 'NONE', #85, #180 ) ;
#32 = EDGE_CURVE ( 'NONE', #72, #190, #205, .T. ) ;
#33 = VECTOR ( 'NONE', #245, 39.37007874015748143 ) ;
#34 = LINE ( 'NONE', #26, #132 ) ;
#35 = APPLICATION_PROTOCOL_DEFINITION ( 'draft international standard', 'automotive_design', 1998, #314 ) ;
#36 = ORIENTED_EDGE ( 'NONE', *, *, #75, .F. ) ;
#37 = EDGE_CURVE ( 'NONE', #114, #193, #16, .T. ) ;
#38 = DIRECTION ( 'NONE',  ( 1.000000000000000000, 0.000000000000000000, 0.000000000000000000 ) ) ;
#39 = AXIS2_PLACEMENT_3D ( 'NONE', #157, #265, #128 ) ;
#40 = SURFACE_STYLE_USAGE ( .BOTH. , #63 ) ;
#41 = DIRECTION ( 'NONE',  ( 0.000000000000000000, 0.000000000000000000, 1.000000000000000000 ) ) ;
#42 = ORIENTED_EDGE ( 'NONE', *, *, #195, .T. ) ;
#43 = EDGE_LOOP ( 'NONE', ( #208, #95, #248, #171 ) ) ;
#44 = VECTOR ( 'NONE', #17, 39.37007874015748143 ) ;
#45 = EDGE_LOOP ( 'NONE', ( #196, #135, #58, #333 ) ) ;
#46 = LENGTH_MEASURE_WITH_UNIT ( LENGTH_MEASURE( 0.02539999999999999897 ), #129 );
#47 = EDGE_CURVE ( 'NONE', #199, #193, #121, .T. ) ;
#48 = DIRECTION ( 'NONE',  ( 0.000000000000000000, 0.000000000000000000, -1.000000000000000000 ) ) ;
#49 = PLANE ( 'NONE',  #140 ) ;
#50 = CARTESIAN_POINT ( 'NONE',  ( 23.50000000000000000, 0.9999999999999998890, 0.9999999999999998890 ) ) ;
#51 = CARTESIAN_POINT ( 'NONE',  ( 23.50000000000000000, -0.9062499999999998890, 0.9062499999999998890 ) ) ;
#52 =( GEOMETRIC_REPRESENTATION_CONTEXT ( 3 ) GLOBAL_UNCERTAINTY_ASSIGNED_CONTEXT ( ( #136 ) ) GLOBAL_UNIT_ASSIGNED_CONTEXT ( ( #264, #289, #21 ) ) REPRESENTATION_CONTEXT ( 'NONE', 'WORKASPACE' ) );
#53 = PRODUCT_DEFINITION_CONTEXT ( 'detailed design', #172, 'design' ) ;
#54 = LINE ( 'NONE', #139, #266 ) ;
#55 = ORIENTED_EDGE ( 'NONE', *, *, #104, .F. ) ;
#56 = LINE ( 'NONE', #51, #80 ) ;
#57 = ADVANCED_FACE ( 'NONE', ( #234 ), #285, .F. ) ;
#58 = ORIENTED_EDGE ( 'NONE', *, *, #241, .F. ) ;
#59 = CARTESIAN_POINT ( 'NONE',  ( 23.50000000000000000, 0.000000000000000000, 0.9062499999999998890 ) ) ;
#60 = EDGE_LOOP ( 'NONE', ( #98, #210, #222, #62 ) ) ;
#61 = CLOSED_SHELL ( 'NONE', ( #25, #178, #14, #237, #284, #57, #122, #302, #174, #99 ) ) ;
#62 = ORIENTED_EDGE ( 'NONE', *, *, #269, .T. ) ;
#63 = SURFACE_SIDE_STYLE ('',( #94 ) ) ;
#64 = FILL_AREA_STYLE ('',( #11 ) ) ;
#65 = DIMENSIONAL_EXPONENTS ( 1.000000000000000000, 0.000000000000000000, 0.000000000000000000, 0.000000000000000000, 0.000000000000000000, 0.000000000000000000, 0.000000000000000000 ) ;
#66 = DIRECTION ( 'NONE',  ( -0.000000000000000000, 1.000000000000000000, 0.000000000000000000 ) ) ;
#67 = VECTOR ( 'NONE', #230, 39.37007874015748143 ) ;
#68 = CARTESIAN_POINT ( 'NONE',  ( -23.50000000000000000, 0.9999999999999998890, 0.9999999999999998890 ) ) ;
#69 = FILL_AREA_STYLE_COLOUR ( '', #263 ) ;
#70 = EDGE_CURVE ( 'NONE', #93, #27, #123, .T. ) ;
#71 = DIRECTION ( 'NONE',  ( -1.000000000000000000, -0.000000000000000000, -0.000000000000000000 ) ) ;
#72 = VERTEX_POINT ( 'NONE', #262 ) ;
#73 = AXIS2_PLACEMENT_3D ( 'NONE', #150, #259, #204 ) ;
#74 = DIRECTION ( 'NONE',  ( -1.000000000000000000, -0.000000000000000000, -0.000000000000000000 ) ) ;
#75 = EDGE_CURVE ( 'NONE', #86, #281, #306, .T. ) ;
#76 = CARTESIAN_POINT ( 'NONE',  ( 23.50000000000000000, 0.9999999999999998890, 0.9999999999999998890 ) ) ;
#77 = MANIFOLD_SOLID_BREP ( 'Extrude-Thin1', #61 ) ;
#78 = CARTESIAN_POINT ( 'NONE',  ( 23.50000000000000000, -0.9062499999999998890, 0.9062499999999998890 ) ) ;
#79 = DIRECTION ( 'NONE',  ( 0.000000000000000000, 0.000000000000000000, 1.000000000000000000 ) ) ;
#80 = VECTOR ( 'NONE', #272, 39.37007874015748143 ) ;
#81 = CARTESIAN_POINT ( 'NONE',  ( 23.50000000000000000, -1.000000000000000000, -1.000000000000000000 ) ) ;
#82 = CARTESIAN_POINT ( 'NONE',  ( 23.50000000000000000, -0.9062499999999998890, -0.9062499999999998890 ) ) ;
#83 = VECTOR ( 'NONE', #304, 39.37007874015748143 ) ;
#84 = UNCERTAINTY_MEASURE_WITH_UNIT (LENGTH_MEASURE( 1.000000000000000082E-05 ), #255, 'distance_accuracy_value', 'NONE');
#85 = CARTESIAN_POINT ( 'NONE',  ( -23.50000000000000000, -1.000000000000000000, 0.9999999999999998890 ) ) ;
#86 = VERTEX_POINT ( 'NONE', #126 ) ;
#87 = LINE ( 'NONE', #194, #296 ) ;
#88 = DIRECTION ( 'NONE',  ( -1.000000000000000000, -0.000000000000000000, -0.000000000000000000 ) ) ;
#89 = EDGE_CURVE ( 'NONE', #165, #86, #156, .T. ) ;
#90 = ORIENTED_EDGE ( 'NONE', *, *, #75, .T. ) ;
#91 = EDGE_LOOP ( 'NONE', ( #330, #29, #153, #251 ) ) ;
#92 = APPLICATION_PROTOCOL_DEFINITION ( 'draft international standard', 'automotive_design', 1998, #172 ) ;
#93 = VERTEX_POINT ( 'NONE', #235 ) ;
#94 = SURFACE_STYLE_FILL_AREA ( #253 ) ;
#95 = ORIENTED_EDGE ( 'NONE', *, *, #312, .F. ) ;
#96 = COLOUR_RGB ( '',0.8666666666666666963, 0.9098039215686274384, 1.000000000000000000 ) ;
#97 = DIRECTION ( 'NONE',  ( 0.000000000000000000, 0.000000000000000000, -1.000000000000000000 ) ) ;
#98 = ORIENTED_EDGE ( 'NONE', *, *, #203, .F. ) ;
#99 = ADVANCED_FACE ( 'NONE', ( #347 ), #187, .T. ) ;
#100 = AXIS2_PLACEMENT_3D ( 'NONE', #221, #113, #324 ) ;
#101 = CARTESIAN_POINT ( 'NONE',  ( 23.50000000000000000, -1.000000000000000000, -1.000000000000000000 ) ) ;
#102 = CARTESIAN_POINT ( 'NONE',  ( 23.50000000000000000, 0.9062499999999998890, 0.000000000000000000 ) ) ;
#103 = PRESENTATION_STYLE_ASSIGNMENT (( #181 ) ) ;
#104 = EDGE_CURVE ( 'NONE', #124, #199, #211, .T. ) ;
#105 = PRESENTATION_LAYER_ASSIGNMENT (  '', '', ( #127 ) ) ;
#106 = CARTESIAN_POINT ( 'NONE',  ( 23.50000000000000000, 0.9062499999999998890, -0.9062499999999998890 ) ) ;
#107 = VERTEX_POINT ( 'NONE', #101 ) ;
#108 = LINE ( 'NONE', #250, #1 ) ;
#109 = ORIENTED_EDGE ( 'NONE', *, *, #110, .T. ) ;
#110 = EDGE_CURVE ( 'NONE', #124, #114, #212, .T. ) ;
#111 = FACE_OUTER_BOUND ( 'NONE', #91, .T. ) ;
#112 = ORIENTED_EDGE ( 'NONE', *, *, #37, .F. ) ;
#113 = DIRECTION ( 'NONE',  ( 0.000000000000000000, -1.000000000000000000, 0.000000000000000000 ) ) ;
#114 = VERTEX_POINT ( 'NONE', #50 ) ;
#115 = LINE ( 'NONE', #59, #169 ) ;
#116 = EDGE_LOOP ( 'NONE', ( #177, #112, #232, #300 ) ) ;
#117 = ORIENTED_EDGE ( 'NONE', *, *, #89, .F. ) ;
#118 = PRESENTATION_LAYER_ASSIGNMENT (  '', '', ( #342 ) ) ;
#119 =( NAMED_UNIT ( * ) SI_UNIT ( $, .STERADIAN. ) SOLID_ANGLE_UNIT ( ) );
#120 = ORIENTED_EDGE ( 'NONE', *, *, #183, .T. ) ;
#121 = LINE ( 'NONE', #68, #67 ) ;
#122 = ADVANCED_FACE ( 'NONE', ( #240 ), #158, .T. ) ;
#123 = LINE ( 'NONE', #201, #147 ) ;
#124 = VERTEX_POINT ( 'NONE', #186 ) ;
#125 = DIRECTION ( 'NONE',  ( 0.000000000000000000, 0.000000000000000000, -1.000000000000000000 ) ) ;
#126 = CARTESIAN_POINT ( 'NONE',  ( 23.50000000000000000, -0.9062499999999998890, -0.9062499999999998890 ) ) ;
#127 = STYLED_ITEM ( 'NONE', ( #261 ), #30 ) ;
#128 = DIRECTION ( 'NONE',  ( 1.000000000000000000, 0.000000000000000000, -0.000000000000000000 ) ) ;
#129 =( LENGTH_UNIT ( ) NAMED_UNIT ( * ) SI_UNIT ( $, .METRE. ) );
#130 = DIRECTION ( 'NONE',  ( 1.000000000000000000, 0.000000000000000000, 0.000000000000000000 ) ) ;
#131 = FACE_OUTER_BOUND ( 'NONE', #116, .T. ) ;
#132 = VECTOR ( 'NONE', #219, 39.37007874015748143 ) ;
#133 = FACE_OUTER_BOUND ( 'NONE', #295, .T. ) ;
#134 = EDGE_CURVE ( 'NONE', #20, #163, #293, .T. ) ;
#135 = ORIENTED_EDGE ( 'NONE', *, *, #216, .F. ) ;
#136 = UNCERTAINTY_MEASURE_WITH_UNIT (LENGTH_MEASURE( 1.000000000000000082E-05 ), #264, 'distance_accuracy_value', 'NONE');
#137 = LINE ( 'NONE', #294, #83 ) ;
#138 = ORIENTED_EDGE ( 'NONE', *, *, #329, .T. ) ;
#139 = CARTESIAN_POINT ( 'NONE',  ( 23.50000000000000000, -1.000000000000000000, -1.000000000000000000 ) ) ;
#140 = AXIS2_PLACEMENT_3D ( 'NONE', #159, #130, #242 ) ;
#141 = DIRECTION ( 'NONE',  ( 0.000000000000000000, -1.000000000000000000, 0.000000000000000000 ) ) ;
#142 = ORIENTED_EDGE ( 'NONE', *, *, #183, .F. ) ;
#143 = PRODUCT_DEFINITION_SHAPE ( 'NONE', 'NONE',  #297 ) ;
#144 = DIMENSIONAL_EXPONENTS ( 1.000000000000000000, 0.000000000000000000, 0.000000000000000000, 0.000000000000000000, 0.000000000000000000, 0.000000000000000000, 0.000000000000000000 ) ;
#145 =( CONVERSION_BASED_UNIT ( 'INCH', #209 ) LENGTH_UNIT ( ) NAMED_UNIT ( #202 ) );
#146 = VERTEX_POINT ( 'NONE', #239 ) ;
#147 = VECTOR ( 'NONE', #97, 39.37007874015748143 ) ;
#148 = AXIS2_PLACEMENT_3D ( 'NONE', #166, #328, #322 ) ;
#149 = ORIENTED_EDGE ( 'NONE', *, *, #280, .T. ) ;
#150 = CARTESIAN_POINT ( 'NONE',  ( 0.000000000000000000, 0.000000000000000000, 0.000000000000000000 ) ) ;
#151 = CARTESIAN_POINT ( 'NONE',  ( 23.50000000000000000, -1.000000000000000000, 0.9999999999999998890 ) ) ;
#152 =( NAMED_UNIT ( * ) PLANE_ANGLE_UNIT ( ) SI_UNIT ( $, .RADIAN. ) );
#153 = ORIENTED_EDGE ( 'NONE', *, *, #155, .T. ) ;
#154 = VECTOR ( 'NONE', #287, 39.37007874015748143 ) ;
#155 = EDGE_CURVE ( 'NONE', #281, #72, #344, .T. ) ;
#156 = LINE ( 'NONE', #236, #19 ) ;
#157 = CARTESIAN_POINT ( 'NONE',  ( 23.50000000000000000, 0.000000000000000000, -0.9062499999999998890 ) ) ;
#158 = PLANE ( 'NONE',  #39 ) ;
#159 = CARTESIAN_POINT ( 'NONE',  ( -23.50000000000000000, 0.000000000000000000, 0.000000000000000000 ) ) ;
#160 = LINE ( 'NONE', #81, #337 ) ;
#161 = DIRECTION ( 'NONE',  ( -1.000000000000000000, -0.000000000000000000, -0.000000000000000000 ) ) ;
#162 = AXIS2_PLACEMENT_3D ( 'NONE', #5, #278, #274 ) ;
#163 = VERTEX_POINT ( 'NONE', #316 ) ;
#164 = CARTESIAN_POINT ( 'NONE',  ( -23.50000000000000000, -1.000000000000000000, -1.000000000000000000 ) ) ;
#165 = VERTEX_POINT ( 'NONE', #78 ) ;
#166 = CARTESIAN_POINT ( 'NONE',  ( 23.50000000000000000, -1.000000000000000000, 0.9999999999999998890 ) ) ;
#167 = EDGE_LOOP ( 'NONE', ( #42, #109, #149, #332 ) ) ;
#168 = CARTESIAN_POINT ( 'NONE',  ( -23.50000000000000000, 0.9999999999999998890, 0.9999999999999998890 ) ) ;
#169 = VECTOR ( 'NONE', #141, 39.37007874015748143 ) ;
#170 = ORIENTED_EDGE ( 'NONE', *, *, #37, .T. ) ;
#171 = ORIENTED_EDGE ( 'NONE', *, *, #47, .F. ) ;
#172 = APPLICATION_CONTEXT ( 'automotive_design' ) ;
#173 = ORIENTED_EDGE ( 'NONE', *, *, #195, .F. ) ;
#174 = ADVANCED_FACE ( 'NONE', ( #184 ), #346, .T. ) ;
#175 = DIRECTION ( 'NONE',  ( 0.000000000000000000, -0.000000000000000000, 1.000000000000000000 ) ) ;
#176 = ORIENTED_EDGE ( 'NONE', *, *, #70, .F. ) ;
#177 = ORIENTED_EDGE ( 'NONE', *, *, #47, .T. ) ;
#178 = ADVANCED_FACE ( 'NONE', ( #23, #292 ), #49, .F. ) ;
#179 = CARTESIAN_POINT ( 'NONE',  ( 23.50000000000000000, -1.000000000000000000, 0.9999999999999998890 ) ) ;
#180 = VECTOR ( 'NONE', #191, 39.37007874015748143 ) ;
#181 = SURFACE_STYLE_USAGE ( .BOTH. , #313 ) ;
#182 = SURFACE_STYLE_FILL_AREA ( #64 ) ;
#183 = EDGE_CURVE ( 'NONE', #27, #146, #215, .T. ) ;
#184 = FACE_OUTER_BOUND ( 'NONE', #60, .T. ) ;
#185 = AXIS2_PLACEMENT_3D ( 'NONE', #341, #214, #340 ) ;
#186 = CARTESIAN_POINT ( 'NONE',  ( 23.50000000000000000, 0.9999999999999998890, -1.000000000000000000 ) ) ;
#187 = PLANE ( 'NONE',  #185 ) ;
#188 = EDGE_CURVE ( 'NONE', #86, #27, #299, .T. ) ;
#189 = CARTESIAN_POINT ( 'NONE',  ( -23.50000000000000000, 0.9999999999999998890, -1.000000000000000000 ) ) ;
#190 = VERTEX_POINT ( 'NONE', #319 ) ;
#191 = DIRECTION ( 'NONE',  ( 0.000000000000000000, 0.000000000000000000, -1.000000000000000000 ) ) ;
#192 = CARTESIAN_POINT ( 'NONE',  ( -23.50000000000000000, -1.000000000000000000, -1.000000000000000000 ) ) ;
#193 = VERTEX_POINT ( 'NONE', #168 ) ;
#194 = CARTESIAN_POINT ( 'NONE',  ( -23.50000000000000000, -1.000000000000000000, 0.9999999999999998890 ) ) ;
#195 = EDGE_CURVE ( 'NONE', #107, #124, #160, .T. ) ;
#196 = ORIENTED_EDGE ( 'NONE', *, *, #312, .T. ) ;
#197 = LINE ( 'NONE', #298, #303 ) ;
#198 = VECTOR ( 'NONE', #213, 39.37007874015748143 ) ;
#199 = VERTEX_POINT ( 'NONE', #189 ) ;
#200 = PRODUCT ( 'WCP-1585 Rev1', 'WCP-1585 Rev1', '', ( #231 ) ) ;
#201 = CARTESIAN_POINT ( 'NONE',  ( -23.50000000000000000, -0.9062499999999998890, 0.000000000000000000 ) ) ;
#202 = DIMENSIONAL_EXPONENTS ( 1.000000000000000000, 0.000000000000000000, 0.000000000000000000, 0.000000000000000000, 0.000000000000000000, 0.000000000000000000, 0.000000000000000000 ) ;
#203 = EDGE_CURVE ( 'NONE', #190, #93, #197, .T. ) ;
#204 = DIRECTION ( 'NONE',  ( 1.000000000000000000, 0.000000000000000000, 0.000000000000000000 ) ) ;
#205 = LINE ( 'NONE', #338, #44 ) ;
#206 =( LENGTH_UNIT ( ) NAMED_UNIT ( * ) SI_UNIT ( $, .METRE. ) );
#207 = FACE_OUTER_BOUND ( 'NONE', #320, .T. ) ;
#208 = ORIENTED_EDGE ( 'NONE', *, *, #321, .F. ) ;
#209 = LENGTH_MEASURE_WITH_UNIT ( LENGTH_MEASURE( 0.02539999999999999897 ), #206 );
#210 = ORIENTED_EDGE ( 'NONE', *, *, #32, .F. ) ;
#211 = LINE ( 'NONE', #268, #291 ) ;
#212 = LINE ( 'NONE', #76, #243 ) ;
#213 = DIRECTION ( 'NONE',  ( 0.000000000000000000, 0.000000000000000000, 1.000000000000000000 ) ) ;
#214 = DIRECTION ( 'NONE',  ( -0.000000000000000000, 1.000000000000000000, 0.000000000000000000 ) ) ;
#215 = LINE ( 'NONE', #249, #33 ) ;
#216 = EDGE_CURVE ( 'NONE', #107, #260, #54, .T. ) ;
#217 =( LENGTH_UNIT ( ) NAMED_UNIT ( * ) SI_UNIT ( $, .METRE. ) );
#218 = ORIENTED_EDGE ( 'NONE', *, *, #280, .F. ) ;
#219 = DIRECTION ( 'NONE',  ( -0.000000000000000000, -1.000000000000000000, -0.000000000000000000 ) ) ;
#220 = ORIENTED_EDGE ( 'NONE', *, *, #89, .T. ) ;
#221 = CARTESIAN_POINT ( 'NONE',  ( 23.50000000000000000, 0.9062499999999998890, 0.000000000000000000 ) ) ;
#222 = ORIENTED_EDGE ( 'NONE', *, *, #345, .T. ) ;
#223 = LINE ( 'NONE', #106, #318 ) ;
#224 = ORIENTED_EDGE ( 'NONE', *, *, #203, .T. ) ;
#225 = LINE ( 'NONE', #192, #277 ) ;
#226 = ORIENTED_EDGE ( 'NONE', *, *, #134, .F. ) ;
#227 =( GEOMETRIC_REPRESENTATION_CONTEXT ( 3 ) GLOBAL_UNCERTAINTY_ASSIGNED_CONTEXT ( ( #4 ) ) GLOBAL_UNIT_ASSIGNED_CONTEXT ( ( #145, #152, #335 ) ) REPRESENTATION_CONTEXT ( 'NONE', 'WORKASPACE' ) );
#228 = PLANE ( 'NONE',  #331 ) ;
#229 = ORIENTED_EDGE ( 'NONE', *, *, #188, .T. ) ;
#230 = DIRECTION ( 'NONE',  ( 0.000000000000000000, 0.000000000000000000, 1.000000000000000000 ) ) ;
#231 = PRODUCT_CONTEXT ( 'NONE', #314, 'mechanical' ) ;
#232 = ORIENTED_EDGE ( 'NONE', *, *, #110, .F. ) ;
#233 = VECTOR ( 'NONE', #161, 39.37007874015748143 ) ;
#234 = FACE_OUTER_BOUND ( 'NONE', #45, .T. ) ;
#235 = CARTESIAN_POINT ( 'NONE',  ( -23.50000000000000000, -0.9062499999999998890, 0.9062499999999998890 ) ) ;
#236 = CARTESIAN_POINT ( 'NONE',  ( 23.50000000000000000, -0.9062499999999998890, 0.000000000000000000 ) ) ;
#237 = ADVANCED_FACE ( 'NONE', ( #131 ), #3, .F. ) ;
#238 = AXIS2_PLACEMENT_3D ( 'NONE', #290, #48, #267 ) ;
#239 = CARTESIAN_POINT ( 'NONE',  ( -23.50000000000000000, 0.9062499999999998890, -0.9062499999999998890 ) ) ;
#240 = FACE_OUTER_BOUND ( 'NONE', #323, .T. ) ;
#241 = EDGE_CURVE ( 'NONE', #20, #107, #108, .T. ) ;
#242 = DIRECTION ( 'NONE',  ( 0.000000000000000000, 0.000000000000000000, -1.000000000000000000 ) ) ;
#243 = VECTOR ( 'NONE', #79, 39.37007874015748143 ) ;
#244 = DIRECTION ( 'NONE',  ( 0.000000000000000000, 0.000000000000000000, -1.000000000000000000 ) ) ;
#245 = DIRECTION ( 'NONE',  ( 0.000000000000000000, 1.000000000000000000, 0.000000000000000000 ) ) ;
#246 = ORIENTED_EDGE ( 'NONE', *, *, #334, .T. ) ;
#247 = DIRECTION ( 'NONE',  ( 0.000000000000000000, 1.000000000000000000, 0.000000000000000000 ) ) ;
#248 = ORIENTED_EDGE ( 'NONE', *, *, #334, .F. ) ;
#249 = CARTESIAN_POINT ( 'NONE',  ( -23.50000000000000000, 0.000000000000000000, -0.9062499999999998890 ) ) ;
#250 = CARTESIAN_POINT ( 'NONE',  ( 23.50000000000000000, -1.000000000000000000, 0.9999999999999998890 ) ) ;
#251 = ORIENTED_EDGE ( 'NONE', *, *, #32, .T. ) ;
#252 = EDGE_CURVE ( 'NONE', #146, #190, #137, .T. ) ;
#253 = FILL_AREA_STYLE ('',( #69 ) ) ;
#254 = ORIENTED_EDGE ( 'NONE', *, *, #252, .T. ) ;
#255 =( CONVERSION_BASED_UNIT ( 'INCH', #305 ) LENGTH_UNIT ( ) NAMED_UNIT ( #65 ) );
#256 = PRODUCT_DEFINITION_FORMATION_WITH_SPECIFIED_SOURCE ( 'ANY', '', #200, .NOT_KNOWN. ) ;
#257 = CARTESIAN_POINT ( 'NONE',  ( -23.50000000000000000, -0.9062499999999998890, -0.9062499999999998890 ) ) ;
#258 = DIRECTION ( 'NONE',  ( 0.000000000000000000, 0.000000000000000000, -1.000000000000000000 ) ) ;
#259 = DIRECTION ( 'NONE',  ( 0.000000000000000000, 0.000000000000000000, 1.000000000000000000 ) ) ;
#260 = VERTEX_POINT ( 'NONE', #164 ) ;
#261 = PRESENTATION_STYLE_ASSIGNMENT (( #40 ) ) ;
#262 = CARTESIAN_POINT ( 'NONE',  ( 23.50000000000000000, 0.9062499999999998890, 0.9062499999999998890 ) ) ;
#263 = COLOUR_RGB ( '',0.8666666666666666963, 0.9098039215686274384, 1.000000000000000000 ) ;
#264 =( CONVERSION_BASED_UNIT ( 'INCH', #46 ) LENGTH_UNIT ( ) NAMED_UNIT ( #144 ) );
#265 = DIRECTION ( 'NONE',  ( 0.000000000000000000, 0.000000000000000000, 1.000000000000000000 ) ) ;
#266 = VECTOR ( 'NONE', #88, 39.37007874015748143 ) ;
#267 = DIRECTION ( 'NONE',  ( -1.000000000000000000, 0.000000000000000000, -0.000000000000000000 ) ) ;
#268 = CARTESIAN_POINT ( 'NONE',  ( 23.50000000000000000, 0.9999999999999998890, -1.000000000000000000 ) ) ;
#269 = EDGE_CURVE ( 'NONE', #165, #93, #56, .T. ) ;
#270 = DIRECTION ( 'NONE',  ( 0.000000000000000000, -1.000000000000000000, 0.000000000000000000 ) ) ;
#271 = AXIS2_PLACEMENT_3D ( 'NONE', #311, #38, #258 ) ;
#272 = DIRECTION ( 'NONE',  ( -1.000000000000000000, -0.000000000000000000, -0.000000000000000000 ) ) ;
#273 = EDGE_LOOP ( 'NONE', ( #279, #36, #117, #336 ) ) ;
#274 = DIRECTION ( 'NONE',  ( 0.000000000000000000, -0.000000000000000000, -1.000000000000000000 ) ) ;
#275 = ORIENTED_EDGE ( 'NONE', *, *, #216, .T. ) ;
#276 = DIRECTION ( 'NONE',  ( 0.000000000000000000, 1.000000000000000000, 0.000000000000000000 ) ) ;
#277 = VECTOR ( 'NONE', #276, 39.37007874015748143 ) ;
#278 = DIRECTION ( 'NONE',  ( 0.000000000000000000, -1.000000000000000000, 0.000000000000000000 ) ) ;
#279 = ORIENTED_EDGE ( 'NONE', *, *, #155, .F. ) ;
#280 = EDGE_CURVE ( 'NONE', #114, #20, #34, .T. ) ;
#281 = VERTEX_POINT ( 'NONE', #8 ) ;
#282 = DIRECTION ( 'NONE',  ( 1.000000000000000000, 0.000000000000000000, -0.000000000000000000 ) ) ;
#283 = ORIENTED_EDGE ( 'NONE', *, *, #188, .F. ) ;
#284 = ADVANCED_FACE ( 'NONE', ( #133 ), #28, .F. ) ;
#285 = PLANE ( 'NONE',  #315 ) ;
#286 = PLANE ( 'NONE',  #271 ) ;
#287 = DIRECTION ( 'NONE',  ( 0.000000000000000000, 1.000000000000000000, 0.000000000000000000 ) ) ;
#288 = VECTOR ( 'NONE', #71, 39.37007874015748143 ) ;
#289 =( NAMED_UNIT ( * ) PLANE_ANGLE_UNIT ( ) SI_UNIT ( $, .RADIAN. ) );
#290 = CARTESIAN_POINT ( 'NONE',  ( 23.50000000000000000, 0.000000000000000000, 0.9062499999999998890 ) ) ;
#291 = VECTOR ( 'NONE', #317, 39.37007874015748143 ) ;
#292 = FACE_BOUND ( 'NONE', #6, .T. ) ;
#293 = LINE ( 'NONE', #24, #22 ) ;
#294 = CARTESIAN_POINT ( 'NONE',  ( -23.50000000000000000, 0.9062499999999998890, 0.000000000000000000 ) ) ;
#295 = EDGE_LOOP ( 'NONE', ( #246, #226, #218, #170 ) ) ;
#296 = VECTOR ( 'NONE', #301, 39.37007874015748143 ) ;
#297 = PRODUCT_DEFINITION ( 'UNKNOWN', '', #256, #53 ) ;
#298 = CARTESIAN_POINT ( 'NONE',  ( -23.50000000000000000, 0.000000000000000000, 0.9062499999999998890 ) ) ;
#299 = LINE ( 'NONE', #82, #233 ) ;
#300 = ORIENTED_EDGE ( 'NONE', *, *, #104, .T. ) ;
#301 = DIRECTION ( 'NONE',  ( -0.000000000000000000, -1.000000000000000000, -0.000000000000000000 ) ) ;
#302 = ADVANCED_FACE ( 'NONE', ( #111 ), #2, .T. ) ;
#303 = VECTOR ( 'NONE', #270, 39.37007874015748143 ) ;
#304 = DIRECTION ( 'NONE',  ( 0.000000000000000000, 0.000000000000000000, 1.000000000000000000 ) ) ;
#305 = LENGTH_MEASURE_WITH_UNIT ( LENGTH_MEASURE( 0.02539999999999999897 ), #217 );
#306 = LINE ( 'NONE', #339, #154 ) ;
#307 =( NAMED_UNIT ( * ) PLANE_ANGLE_UNIT ( ) SI_UNIT ( $, .RADIAN. ) );
#308 = CARTESIAN_POINT ( 'NONE',  ( 23.50000000000000000, 0.9999999999999998890, 0.9999999999999998890 ) ) ;
#309 = FACE_BOUND ( 'NONE', #273, .T. ) ;
#310 = CARTESIAN_POINT ( 'NONE',  ( 23.50000000000000000, -1.000000000000000000, -1.000000000000000000 ) ) ;
#311 = CARTESIAN_POINT ( 'NONE',  ( 23.50000000000000000, 0.000000000000000000, 0.000000000000000000 ) ) ;
#312 = EDGE_CURVE ( 'NONE', #163, #260, #31, .T. ) ;
#313 = SURFACE_SIDE_STYLE ('',( #182 ) ) ;
#314 = APPLICATION_CONTEXT ( 'automotive_design' ) ;
#315 = AXIS2_PLACEMENT_3D ( 'NONE', #151, #66, #175 ) ;
#316 = CARTESIAN_POINT ( 'NONE',  ( -23.50000000000000000, -1.000000000000000000, 0.9999999999999998890 ) ) ;
#317 = DIRECTION ( 'NONE',  ( -1.000000000000000000, -0.000000000000000000, -0.000000000000000000 ) ) ;
#318 = VECTOR ( 'NONE', #326, 39.37007874015748143 ) ;
#319 = CARTESIAN_POINT ( 'NONE',  ( -23.50000000000000000, 0.9062499999999998890, 0.9062499999999998890 ) ) ;
#320 = EDGE_LOOP ( 'NONE', ( #325, #55, #173, #275 ) ) ;
#321 = EDGE_CURVE ( 'NONE', #260, #199, #225, .T. ) ;
#322 = DIRECTION ( 'NONE',  ( -1.000000000000000000, 0.000000000000000000, -0.000000000000000000 ) ) ;
#323 = EDGE_LOOP ( 'NONE', ( #142, #283, #90, #138 ) ) ;
#324 = DIRECTION ( 'NONE',  ( 0.000000000000000000, -0.000000000000000000, -1.000000000000000000 ) ) ;
#325 = ORIENTED_EDGE ( 'NONE', *, *, #321, .T. ) ;
#326 = DIRECTION ( 'NONE',  ( -1.000000000000000000, -0.000000000000000000, -0.000000000000000000 ) ) ;
#327 = ORIENTED_EDGE ( 'NONE', *, *, #70, .T. ) ;
#328 = DIRECTION ( 'NONE',  ( 0.000000000000000000, 0.000000000000000000, -1.000000000000000000 ) ) ;
#329 = EDGE_CURVE ( 'NONE', #281, #146, #223, .T. ) ;
#330 = ORIENTED_EDGE ( 'NONE', *, *, #252, .F. ) ;
#331 = AXIS2_PLACEMENT_3D ( 'NONE', #310, #41, #282 ) ;
#332 = ORIENTED_EDGE ( 'NONE', *, *, #241, .T. ) ;
#333 = ORIENTED_EDGE ( 'NONE', *, *, #134, .T. ) ;
#334 = EDGE_CURVE ( 'NONE', #193, #163, #87, .T. ) ;
#335 =( NAMED_UNIT ( * ) SI_UNIT ( $, .STERADIAN. ) SOLID_ANGLE_UNIT ( ) );
#336 = ORIENTED_EDGE ( 'NONE', *, *, #345, .F. ) ;
#337 = VECTOR ( 'NONE', #247, 39.37007874015748143 ) ;
#338 = CARTESIAN_POINT ( 'NONE',  ( 23.50000000000000000, 0.9062499999999998890, 0.9062499999999998890 ) ) ;
#339 = CARTESIAN_POINT ( 'NONE',  ( 23.50000000000000000, 0.000000000000000000, -0.9062499999999998890 ) ) ;
#340 = DIRECTION ( 'NONE',  ( 0.000000000000000000, -0.000000000000000000, 1.000000000000000000 ) ) ;
#341 = CARTESIAN_POINT ( 'NONE',  ( 23.50000000000000000, -0.9062499999999998890, 0.000000000000000000 ) ) ;
#342 = STYLED_ITEM ( 'NONE', ( #103 ), #77 ) ;
#343 = MECHANICAL_DESIGN_GEOMETRIC_PRESENTATION_REPRESENTATION (  '', ( #127 ), #227 ) ;
#344 = LINE ( 'NONE', #102, #198 ) ;
#345 = EDGE_CURVE ( 'NONE', #72, #165, #115, .T. ) ;
#346 = PLANE ( 'NONE',  #238 ) ;
#347 = FACE_OUTER_BOUND ( 'NONE', #9, .T. ) ;
ENDSEC;
END-ISO-10303-21;
