ISO-10303-21;
HEADER;
FILE_DESCRIPTION (( 'STEP AP214' ),
    '1' );
FILE_NAME ('WCP-1584 Rev1.STEP',
    '2024-05-10T00:11:13',
    ( '' ),
    ( '' ),
    'SwSTEP 2.0',
    'SolidWorks 2022',
    '' );
FILE_SCHEMA (( 'AUTOMOTIVE_DESIGN' ));
ENDSEC;

DATA;
#1 =( LENGTH_UNIT ( ) NAMED_UNIT ( * ) SI_UNIT ( $, .METRE. ) );
#2 = ORIENTED_EDGE ( 'NONE', *, *, #194, .F. ) ;
#3 = EDGE_CURVE ( 'NONE', #308, #51, #59, .T. ) ;
#4 = SURFACE_SIDE_STYLE ('',( #288 ) ) ;
#5 = LINE ( 'NONE', #265, #242 ) ;
#6 = VERTEX_POINT ( 'NONE', #87 ) ;
#7 = VECTOR ( 'NONE', #19, 39.37007874015748143 ) ;
#8 = EDGE_CURVE ( 'NONE', #84, #158, #5, .T. ) ;
#9 = CARTESIAN_POINT ( 'NONE',  ( 23.50000000000000000, 0.000000000000000000, 0.4062500000000000000 ) ) ;
#10 = CLOSED_SHELL ( 'NONE', ( #281, #76, #272, #233, #162, #120, #190, #218, #69, #209 ) ) ;
#11 = CARTESIAN_POINT ( 'NONE',  ( 23.50000000000000000, -0.5000000000000000000, 0.5000000000000000000 ) ) ;
#12 = DIRECTION ( 'NONE',  ( 0.000000000000000000, -1.000000000000000000, 0.000000000000000000 ) ) ;
#13 = CARTESIAN_POINT ( 'NONE',  ( 23.50000000000000000, -0.5000000000000000000, -0.5000000000000000000 ) ) ;
#14 = EDGE_CURVE ( 'NONE', #78, #6, #189, .T. ) ;
#15 = DIRECTION ( 'NONE',  ( 0.000000000000000000, 1.000000000000000000, 0.000000000000000000 ) ) ;
#16 = MANIFOLD_SOLID_BREP ( 'Extrude-Thin1', #10 ) ;
#17 = CARTESIAN_POINT ( 'NONE',  ( 23.50000000000000000, -0.4062500000000000000, 0.4062500000000000000 ) ) ;
#18 = EDGE_CURVE ( 'NONE', #240, #315, #301, .T. ) ;
#19 = DIRECTION ( 'NONE',  ( 0.000000000000000000, 1.000000000000000000, 0.000000000000000000 ) ) ;
#20 = CARTESIAN_POINT ( 'NONE',  ( 23.50000000000000000, 0.000000000000000000, 0.000000000000000000 ) ) ;
#21 = CARTESIAN_POINT ( 'NONE',  ( 23.50000000000000000, 0.4062500000000000000, -0.4062500000000000000 ) ) ;
#22 = ORIENTED_EDGE ( 'NONE', *, *, #64, .F. ) ;
#23 = LINE ( 'NONE', #154, #52 ) ;
#24 =( GEOMETRIC_REPRESENTATION_CONTEXT ( 3 ) GLOBAL_UNCERTAINTY_ASSIGNED_CONTEXT ( ( #155 ) ) GLOBAL_UNIT_ASSIGNED_CONTEXT ( ( #129, #58, #266 ) ) REPRESENTATION_CONTEXT ( 'NONE', 'WORKASPACE' ) );
#25 = VECTOR ( 'NONE', #339, 39.37007874015748143 ) ;
#26 = UNCERTAINTY_MEASURE_WITH_UNIT (LENGTH_MEASURE( 1.000000000000000082E-05 ), #103, 'distance_accuracy_value', 'NONE');
#27 = SURFACE_STYLE_USAGE ( .BOTH. , #298 ) ;
#28 = VECTOR ( 'NONE', #220, 39.37007874015748143 ) ;
#29 = DIRECTION ( 'NONE',  ( 0.000000000000000000, 0.000000000000000000, 1.000000000000000000 ) ) ;
#30 = ORIENTED_EDGE ( 'NONE', *, *, #8, .T. ) ;
#31 = PRODUCT_CONTEXT ( 'NONE', #303, 'mechanical' ) ;
#32 = ORIENTED_EDGE ( 'NONE', *, *, #96, .T. ) ;
#33 = VERTEX_POINT ( 'NONE', #106 ) ;
#34 = ORIENTED_EDGE ( 'NONE', *, *, #245, .T. ) ;
#35 =( GEOMETRIC_REPRESENTATION_CONTEXT ( 3 ) GLOBAL_UNCERTAINTY_ASSIGNED_CONTEXT ( ( #26 ) ) GLOBAL_UNIT_ASSIGNED_CONTEXT ( ( #103, #284, #259 ) ) REPRESENTATION_CONTEXT ( 'NONE', 'WORKASPACE' ) );
#36 = LINE ( 'NONE', #39, #174 ) ;
#37 = SHAPE_DEFINITION_REPRESENTATION ( #291, #237 ) ;
#38 = LINE ( 'NONE', #142, #214 ) ;
#39 = CARTESIAN_POINT ( 'NONE',  ( -23.50000000000000000, -0.5000000000000000000, -0.5000000000000000000 ) ) ;
#40 = CARTESIAN_POINT ( 'NONE',  ( 23.50000000000000000, 0.5000000000000000000, -0.5000000000000000000 ) ) ;
#41 = AXIS2_PLACEMENT_3D ( 'NONE', #169, #109, #330 ) ;
#42 = FACE_OUTER_BOUND ( 'NONE', #75, .T. ) ;
#43 = PRODUCT_DEFINITION ( 'UNKNOWN', '', #90, #255 ) ;
#44 = PLANE ( 'NONE',  #197 ) ;
#45 = ORIENTED_EDGE ( 'NONE', *, *, #139, .F. ) ;
#46 = CARTESIAN_POINT ( 'NONE',  ( 23.50000000000000000, -0.5000000000000000000, -0.5000000000000000000 ) ) ;
#47 = EDGE_LOOP ( 'NONE', ( #212, #102, #208, #32 ) ) ;
#48 = CARTESIAN_POINT ( 'NONE',  ( 23.50000000000000000, -0.5000000000000000000, -0.5000000000000000000 ) ) ;
#49 = DIRECTION ( 'NONE',  ( 0.000000000000000000, 0.000000000000000000, 1.000000000000000000 ) ) ;
#50 = DIRECTION ( 'NONE',  ( 0.000000000000000000, 0.000000000000000000, -1.000000000000000000 ) ) ;
#51 = VERTEX_POINT ( 'NONE', #271 ) ;
#52 = VECTOR ( 'NONE', #180, 39.37007874015748143 ) ;
#53 = DIRECTION ( 'NONE',  ( -1.000000000000000000, -0.000000000000000000, -0.000000000000000000 ) ) ;
#54 = ORIENTED_EDGE ( 'NONE', *, *, #194, .T. ) ;
#55 = EDGE_CURVE ( 'NONE', #315, #310, #140, .T. ) ;
#56 = FILL_AREA_STYLE ('',( #235 ) ) ;
#57 = ORIENTED_EDGE ( 'NONE', *, *, #221, .F. ) ;
#58 =( NAMED_UNIT ( * ) PLANE_ANGLE_UNIT ( ) SI_UNIT ( $, .RADIAN. ) );
#59 = LINE ( 'NONE', #160, #290 ) ;
#60 = ORIENTED_EDGE ( 'NONE', *, *, #3, .F. ) ;
#61 = FACE_BOUND ( 'NONE', #128, .T. ) ;
#62 = LINE ( 'NONE', #63, #327 ) ;
#63 = CARTESIAN_POINT ( 'NONE',  ( 23.50000000000000000, 0.4062500000000000000, 0.4062500000000000000 ) ) ;
#64 = EDGE_CURVE ( 'NONE', #78, #264, #62, .T. ) ;
#65 = DIRECTION ( 'NONE',  ( 0.000000000000000000, 0.000000000000000000, -1.000000000000000000 ) ) ;
#66 = CARTESIAN_POINT ( 'NONE',  ( 23.50000000000000000, -0.5000000000000000000, 0.5000000000000000000 ) ) ;
#67 = VECTOR ( 'NONE', #50, 39.37007874015748143 ) ;
#68 = DIRECTION ( 'NONE',  ( 0.000000000000000000, -0.000000000000000000, -1.000000000000000000 ) ) ;
#69 = ADVANCED_FACE ( 'NONE', ( #137 ), #331, .T. ) ;
#70 = AXIS2_PLACEMENT_3D ( 'NONE', #11, #143, #111 ) ;
#71 = DIRECTION ( 'NONE',  ( 0.000000000000000000, 0.000000000000000000, -1.000000000000000000 ) ) ;
#72 = ORIENTED_EDGE ( 'NONE', *, *, #96, .F. ) ;
#73 = CARTESIAN_POINT ( 'NONE',  ( -23.50000000000000000, 0.4062500000000000000, 0.4062500000000000000 ) ) ;
#74 = DIRECTION ( 'NONE',  ( 0.000000000000000000, -1.000000000000000000, 0.000000000000000000 ) ) ;
#75 = EDGE_LOOP ( 'NONE', ( #296, #72, #54, #100 ) ) ;
#76 = ADVANCED_FACE ( 'NONE', ( #170, #61 ), #192, .F. ) ;
#77 = DIRECTION ( 'NONE',  ( -0.000000000000000000, 1.000000000000000000, 0.000000000000000000 ) ) ;
#78 = VERTEX_POINT ( 'NONE', #275 ) ;
#79 = EDGE_LOOP ( 'NONE', ( #202, #2, #182, #83 ) ) ;
#80 = EDGE_LOOP ( 'NONE', ( #163, #45, #226, #104 ) ) ;
#81 = EDGE_CURVE ( 'NONE', #292, #78, #168, .T. ) ;
#82 = CARTESIAN_POINT ( 'NONE',  ( -23.50000000000000000, -0.4062500000000000000, 0.000000000000000000 ) ) ;
#83 = ORIENTED_EDGE ( 'NONE', *, *, #14, .F. ) ;
#84 = VERTEX_POINT ( 'NONE', #40 ) ;
#85 = PRESENTATION_STYLE_ASSIGNMENT (( #27 ) ) ;
#86 = AXIS2_PLACEMENT_3D ( 'NONE', #48, #248, #115 ) ;
#87 = CARTESIAN_POINT ( 'NONE',  ( 23.50000000000000000, -0.4062500000000000000, 0.4062500000000000000 ) ) ;
#88 = LINE ( 'NONE', #13, #124 ) ;
#89 = PLANE ( 'NONE',  #241 ) ;
#90 = PRODUCT_DEFINITION_FORMATION_WITH_SPECIFIED_SOURCE ( 'ANY', '', #320, .NOT_KNOWN. ) ;
#91 = FACE_OUTER_BOUND ( 'NONE', #107, .T. ) ;
#92 = DIRECTION ( 'NONE',  ( 0.000000000000000000, 0.000000000000000000, 1.000000000000000000 ) ) ;
#93 = ORIENTED_EDGE ( 'NONE', *, *, #295, .F. ) ;
#94 = DIRECTION ( 'NONE',  ( 0.000000000000000000, -0.000000000000000000, 1.000000000000000000 ) ) ;
#95 = ORIENTED_EDGE ( 'NONE', *, *, #99, .F. ) ;
#96 = EDGE_CURVE ( 'NONE', #346, #33, #247, .T. ) ;
#97 = LINE ( 'NONE', #46, #144 ) ;
#98 = DIRECTION ( 'NONE',  ( 0.000000000000000000, -0.000000000000000000, -1.000000000000000000 ) ) ;
#99 = EDGE_CURVE ( 'NONE', #236, #158, #36, .T. ) ;
#100 = ORIENTED_EDGE ( 'NONE', *, *, #329, .T. ) ;
#101 = DIRECTION ( 'NONE',  ( 0.000000000000000000, 0.000000000000000000, 1.000000000000000000 ) ) ;
#102 = ORIENTED_EDGE ( 'NONE', *, *, #167, .F. ) ;
#103 =( CONVERSION_BASED_UNIT ( 'INCH', #323 ) LENGTH_UNIT ( ) NAMED_UNIT ( #134 ) );
#104 = ORIENTED_EDGE ( 'NONE', *, *, #221, .T. ) ;
#105 = SURFACE_STYLE_USAGE ( .BOTH. , #4 ) ;
#106 = CARTESIAN_POINT ( 'NONE',  ( -23.50000000000000000, -0.4062500000000000000, -0.4062500000000000000 ) ) ;
#107 = EDGE_LOOP ( 'NONE', ( #93, #157, #344, #132 ) ) ;
#108 = AXIS2_PLACEMENT_3D ( 'NONE', #198, #77, #94 ) ;
#109 = DIRECTION ( 'NONE',  ( 1.000000000000000000, 0.000000000000000000, 0.000000000000000000 ) ) ;
#110 = COLOUR_RGB ( '',0.8666666666666666963, 0.9098039215686274384, 1.000000000000000000 ) ;
#111 = DIRECTION ( 'NONE',  ( 0.000000000000000000, -0.000000000000000000, 1.000000000000000000 ) ) ;
#112 = CARTESIAN_POINT ( 'NONE',  ( -23.50000000000000000, -0.4062500000000000000, 0.4062500000000000000 ) ) ;
#113 = CARTESIAN_POINT ( 'NONE',  ( -23.50000000000000000, 0.5000000000000000000, -0.5000000000000000000 ) ) ;
#114 = FACE_OUTER_BOUND ( 'NONE', #80, .T. ) ;
#115 = DIRECTION ( 'NONE',  ( 1.000000000000000000, 0.000000000000000000, -0.000000000000000000 ) ) ;
#116 = CARTESIAN_POINT ( 'NONE',  ( 23.50000000000000000, 0.5000000000000000000, 0.5000000000000000000 ) ) ;
#117 = ORIENTED_EDGE ( 'NONE', *, *, #262, .F. ) ;
#118 = DIRECTION ( 'NONE',  ( 1.000000000000000000, 0.000000000000000000, 0.000000000000000000 ) ) ;
#119 = EDGE_LOOP ( 'NONE', ( #319, #267, #326, #183 ) ) ;
#120 = ADVANCED_FACE ( 'NONE', ( #114 ), #217, .F. ) ;
#121 = LINE ( 'NONE', #227, #213 ) ;
#122 = AXIS2_PLACEMENT_3D ( 'NONE', #263, #29, #127 ) ;
#123 = LINE ( 'NONE', #277, #258 ) ;
#124 = VECTOR ( 'NONE', #332, 39.37007874015748143 ) ;
#125 = EDGE_CURVE ( 'NONE', #240, #308, #273, .T. ) ;
#126 = VECTOR ( 'NONE', #210, 39.37007874015748143 ) ;
#127 = DIRECTION ( 'NONE',  ( 1.000000000000000000, 0.000000000000000000, 0.000000000000000000 ) ) ;
#128 = EDGE_LOOP ( 'NONE', ( #185, #239, #317, #285 ) ) ;
#129 =( CONVERSION_BASED_UNIT ( 'INCH', #205 ) LENGTH_UNIT ( ) NAMED_UNIT ( #269 ) );
#130 = CARTESIAN_POINT ( 'NONE',  ( 23.50000000000000000, 0.000000000000000000, 0.4062500000000000000 ) ) ;
#131 = LINE ( 'NONE', #293, #67 ) ;
#132 = ORIENTED_EDGE ( 'NONE', *, *, #64, .T. ) ;
#133 = EDGE_CURVE ( 'NONE', #264, #136, #38, .T. ) ;
#134 = DIMENSIONAL_EXPONENTS ( 1.000000000000000000, 0.000000000000000000, 0.000000000000000000, 0.000000000000000000, 0.000000000000000000, 0.000000000000000000, 0.000000000000000000 ) ;
#135 = CARTESIAN_POINT ( 'NONE',  ( 23.50000000000000000, -0.5000000000000000000, -0.5000000000000000000 ) ) ;
#136 = VERTEX_POINT ( 'NONE', #112 ) ;
#137 = FACE_OUTER_BOUND ( 'NONE', #234, .T. ) ;
#138 = VECTOR ( 'NONE', #175, 39.37007874015748143 ) ;
#139 = EDGE_CURVE ( 'NONE', #310, #236, #88, .T. ) ;
#140 = LINE ( 'NONE', #244, #345 ) ;
#141 = STYLED_ITEM ( 'NONE', ( #85 ), #16 ) ;
#142 = CARTESIAN_POINT ( 'NONE',  ( -23.50000000000000000, 0.000000000000000000, 0.4062500000000000000 ) ) ;
#143 = DIRECTION ( 'NONE',  ( -0.000000000000000000, 1.000000000000000000, 0.000000000000000000 ) ) ;
#144 = VECTOR ( 'NONE', #309, 39.37007874015748143 ) ;
#145 =( LENGTH_UNIT ( ) NAMED_UNIT ( * ) SI_UNIT ( $, .METRE. ) );
#146 = PRESENTATION_LAYER_ASSIGNMENT (  '', '', ( #141 ) ) ;
#147 = CARTESIAN_POINT ( 'NONE',  ( 23.50000000000000000, 0.4062500000000000000, 0.000000000000000000 ) ) ;
#148 = DIRECTION ( 'NONE',  ( 0.000000000000000000, -1.000000000000000000, 0.000000000000000000 ) ) ;
#149 = ORIENTED_EDGE ( 'NONE', *, *, #167, .T. ) ;
#150 = FACE_OUTER_BOUND ( 'NONE', #153, .T. ) ;
#151 = ORIENTED_EDGE ( 'NONE', *, *, #245, .F. ) ;
#152 = PLANE ( 'NONE',  #325 ) ;
#153 = EDGE_LOOP ( 'NONE', ( #249, #34, #181, #289 ) ) ;
#154 = CARTESIAN_POINT ( 'NONE',  ( 23.50000000000000000, -0.5000000000000000000, 0.5000000000000000000 ) ) ;
#155 = UNCERTAINTY_MEASURE_WITH_UNIT (LENGTH_MEASURE( 1.000000000000000082E-05 ), #129, 'distance_accuracy_value', 'NONE');
#156 = VECTOR ( 'NONE', #92, 39.37007874015748143 ) ;
#157 = ORIENTED_EDGE ( 'NONE', *, *, #329, .F. ) ;
#158 = VERTEX_POINT ( 'NONE', #113 ) ;
#159 = CARTESIAN_POINT ( 'NONE',  ( 23.50000000000000000, 0.4062500000000000000, -0.4062500000000000000 ) ) ;
#160 = CARTESIAN_POINT ( 'NONE',  ( -23.50000000000000000, -0.5000000000000000000, 0.5000000000000000000 ) ) ;
#161 = APPLICATION_PROTOCOL_DEFINITION ( 'draft international standard', 'automotive_design', 1998, #303 ) ;
#162 = ADVANCED_FACE ( 'NONE', ( #219 ), #89, .F. ) ;
#163 = ORIENTED_EDGE ( 'NONE', *, *, #228, .T. ) ;
#164 = LINE ( 'NONE', #159, #187 ) ;
#165 = ORIENTED_EDGE ( 'NONE', *, *, #133, .F. ) ;
#166 = LENGTH_MEASURE_WITH_UNIT ( LENGTH_MEASURE( 0.02539999999999999897 ), #145 );
#167 = EDGE_CURVE ( 'NONE', #6, #136, #173, .T. ) ;
#168 = LINE ( 'NONE', #215, #188 ) ;
#169 = CARTESIAN_POINT ( 'NONE',  ( -23.50000000000000000, 0.000000000000000000, 0.000000000000000000 ) ) ;
#170 = FACE_OUTER_BOUND ( 'NONE', #177, .T. ) ;
#171 = STYLED_ITEM ( 'NONE', ( #318 ), #237 ) ;
#172 = AXIS2_PLACEMENT_3D ( 'NONE', #147, #148, #68 ) ;
#173 = LINE ( 'NONE', #17, #287 ) ;
#174 = VECTOR ( 'NONE', #15, 39.37007874015748143 ) ;
#175 = DIRECTION ( 'NONE',  ( 0.000000000000000000, 0.000000000000000000, -1.000000000000000000 ) ) ;
#176 = CARTESIAN_POINT ( 'NONE',  ( -23.50000000000000000, -0.5000000000000000000, 0.5000000000000000000 ) ) ;
#177 = EDGE_LOOP ( 'NONE', ( #95, #231, #60, #117 ) ) ;
#178 = CARTESIAN_POINT ( 'NONE',  ( 23.50000000000000000, 0.5000000000000000000, 0.5000000000000000000 ) ) ;
#179 = EDGE_LOOP ( 'NONE', ( #206, #57, #252, #268 ) ) ;
#180 = DIRECTION ( 'NONE',  ( -1.000000000000000000, -0.000000000000000000, -0.000000000000000000 ) ) ;
#181 = ORIENTED_EDGE ( 'NONE', *, *, #18, .T. ) ;
#182 = ORIENTED_EDGE ( 'NONE', *, *, #300, .F. ) ;
#183 = ORIENTED_EDGE ( 'NONE', *, *, #139, .T. ) ;
#184 = LINE ( 'NONE', #82, #341 ) ;
#185 = ORIENTED_EDGE ( 'NONE', *, *, #286, .T. ) ;
#186 = CARTESIAN_POINT ( 'NONE',  ( -23.50000000000000000, 0.4062500000000000000, -0.4062500000000000000 ) ) ;
#187 = VECTOR ( 'NONE', #53, 39.37007874015748143 ) ;
#188 = VECTOR ( 'NONE', #328, 39.37007874015748143 ) ;
#189 = LINE ( 'NONE', #130, #126 ) ;
#190 = ADVANCED_FACE ( 'NONE', ( #42 ), #152, .T. ) ;
#191 = DIRECTION ( 'NONE',  ( -1.000000000000000000, -0.000000000000000000, -0.000000000000000000 ) ) ;
#192 = PLANE ( 'NONE',  #41 ) ;
#193 = APPLICATION_PROTOCOL_DEFINITION ( 'draft international standard', 'automotive_design', 1998, #276 ) ;
#194 = EDGE_CURVE ( 'NONE', #346, #292, #336, .T. ) ;
#195 =( CONVERSION_BASED_UNIT ( 'INCH', #166 ) LENGTH_UNIT ( ) NAMED_UNIT ( #297 ) );
#196 = DIRECTION ( 'NONE',  ( -1.000000000000000000, 0.000000000000000000, -0.000000000000000000 ) ) ;
#197 = AXIS2_PLACEMENT_3D ( 'NONE', #250, #74, #98 ) ;
#198 = CARTESIAN_POINT ( 'NONE',  ( 23.50000000000000000, -0.4062500000000000000, 0.000000000000000000 ) ) ;
#199 = PRODUCT_RELATED_PRODUCT_CATEGORY ( 'part', '', ( #320 ) ) ;
#200 = AXIS2_PLACEMENT_3D ( 'NONE', #9, #65, #196 ) ;
#201 = CARTESIAN_POINT ( 'NONE',  ( 23.50000000000000000, 0.000000000000000000, -0.4062500000000000000 ) ) ;
#202 = ORIENTED_EDGE ( 'NONE', *, *, #81, .F. ) ;
#203 = CARTESIAN_POINT ( 'NONE',  ( 23.50000000000000000, -0.5000000000000000000, 0.5000000000000000000 ) ) ;
#204 = DIRECTION ( 'NONE',  ( -1.000000000000000000, -0.000000000000000000, -0.000000000000000000 ) ) ;
#205 = LENGTH_MEASURE_WITH_UNIT ( LENGTH_MEASURE( 0.02539999999999999897 ), #238 );
#206 = ORIENTED_EDGE ( 'NONE', *, *, #3, .T. ) ;
#207 = CARTESIAN_POINT ( 'NONE',  ( 23.50000000000000000, -0.5000000000000000000, 0.5000000000000000000 ) ) ;
#208 = ORIENTED_EDGE ( 'NONE', *, *, #300, .T. ) ;
#209 = ADVANCED_FACE ( 'NONE', ( #311 ), #224, .T. ) ;
#210 = DIRECTION ( 'NONE',  ( 0.000000000000000000, -1.000000000000000000, 0.000000000000000000 ) ) ;
#211 = FILL_AREA_STYLE ('',( #321 ) ) ;
#212 = ORIENTED_EDGE ( 'NONE', *, *, #322, .F. ) ;
#213 = VECTOR ( 'NONE', #101, 39.37007874015748143 ) ;
#214 = VECTOR ( 'NONE', #12, 39.37007874015748143 ) ;
#215 = CARTESIAN_POINT ( 'NONE',  ( 23.50000000000000000, 0.4062500000000000000, 0.000000000000000000 ) ) ;
#216 = CARTESIAN_POINT ( 'NONE',  ( 23.50000000000000000, 0.5000000000000000000, 0.5000000000000000000 ) ) ;
#217 = PLANE ( 'NONE',  #70 ) ;
#218 = ADVANCED_FACE ( 'NONE', ( #91 ), #279, .T. ) ;
#219 = FACE_OUTER_BOUND ( 'NONE', #179, .T. ) ;
#220 = DIRECTION ( 'NONE',  ( -1.000000000000000000, -0.000000000000000000, -0.000000000000000000 ) ) ;
#221 = EDGE_CURVE ( 'NONE', #315, #51, #23, .T. ) ;
#222 = FACE_BOUND ( 'NONE', #79, .T. ) ;
#223 = ORIENTED_EDGE ( 'NONE', *, *, #125, .F. ) ;
#224 = PLANE ( 'NONE',  #108 ) ;
#225 = LINE ( 'NONE', #253, #25 ) ;
#226 = ORIENTED_EDGE ( 'NONE', *, *, #55, .F. ) ;
#227 = CARTESIAN_POINT ( 'NONE',  ( -23.50000000000000000, 0.4062500000000000000, 0.000000000000000000 ) ) ;
#228 = EDGE_CURVE ( 'NONE', #51, #236, #282, .T. ) ;
#229 = PLANE ( 'NONE',  #86 ) ;
#230 = VECTOR ( 'NONE', #191, 39.37007874015748143 ) ;
#231 = ORIENTED_EDGE ( 'NONE', *, *, #228, .F. ) ;
#232 = CARTESIAN_POINT ( 'NONE',  ( 23.50000000000000000, -0.4062500000000000000, -0.4062500000000000000 ) ) ;
#233 = ADVANCED_FACE ( 'NONE', ( #307 ), #44, .F. ) ;
#234 = EDGE_LOOP ( 'NONE', ( #165, #22, #313, #149 ) ) ;
#235 = FILL_AREA_STYLE_COLOUR ( '', #257 ) ;
#236 = VERTEX_POINT ( 'NONE', #283 ) ;
#237 = ADVANCED_BREP_SHAPE_REPRESENTATION ( 'WCP-1584 Rev1', ( #16, #122 ), #24 ) ;
#238 =( LENGTH_UNIT ( ) NAMED_UNIT ( * ) SI_UNIT ( $, .METRE. ) );
#239 = ORIENTED_EDGE ( 'NONE', *, *, #295, .T. ) ;
#240 = VERTEX_POINT ( 'NONE', #116 ) ;
#241 = AXIS2_PLACEMENT_3D ( 'NONE', #203, #71, #340 ) ;
#242 = VECTOR ( 'NONE', #260, 39.37007874015748143 ) ;
#243 = DIRECTION ( 'NONE',  ( 0.000000000000000000, 0.000000000000000000, -1.000000000000000000 ) ) ;
#244 = CARTESIAN_POINT ( 'NONE',  ( 23.50000000000000000, -0.5000000000000000000, 0.5000000000000000000 ) ) ;
#245 = EDGE_CURVE ( 'NONE', #84, #240, #305, .T. ) ;
#246 = DIRECTION ( 'NONE',  ( -1.000000000000000000, -0.000000000000000000, -0.000000000000000000 ) ) ;
#247 = LINE ( 'NONE', #274, #230 ) ;
#248 = DIRECTION ( 'NONE',  ( 0.000000000000000000, 0.000000000000000000, 1.000000000000000000 ) ) ;
#249 = ORIENTED_EDGE ( 'NONE', *, *, #254, .T. ) ;
#250 = CARTESIAN_POINT ( 'NONE',  ( 23.50000000000000000, 0.5000000000000000000, 0.5000000000000000000 ) ) ;
#251 = PLANE ( 'NONE',  #306 ) ;
#252 = ORIENTED_EDGE ( 'NONE', *, *, #18, .F. ) ;
#253 = CARTESIAN_POINT ( 'NONE',  ( -23.50000000000000000, 0.000000000000000000, -0.4062500000000000000 ) ) ;
#254 = EDGE_CURVE ( 'NONE', #310, #84, #97, .T. ) ;
#255 = PRODUCT_DEFINITION_CONTEXT ( 'detailed design', #276, 'design' ) ;
#256 = DIRECTION ( 'NONE',  ( 1.000000000000000000, 0.000000000000000000, -0.000000000000000000 ) ) ;
#257 = COLOUR_RGB ( '',0.8666666666666666963, 0.9098039215686274384, 1.000000000000000000 ) ;
#258 = VECTOR ( 'NONE', #49, 39.37007874015748143 ) ;
#259 =( NAMED_UNIT ( * ) SI_UNIT ( $, .STERADIAN. ) SOLID_ANGLE_UNIT ( ) );
#260 = DIRECTION ( 'NONE',  ( -1.000000000000000000, -0.000000000000000000, -0.000000000000000000 ) ) ;
#261 = MECHANICAL_DESIGN_GEOMETRIC_PRESENTATION_REPRESENTATION (  '', ( #141 ), #278 ) ;
#262 = EDGE_CURVE ( 'NONE', #158, #308, #123, .T. ) ;
#263 = CARTESIAN_POINT ( 'NONE',  ( 0.000000000000000000, 0.000000000000000000, 0.000000000000000000 ) ) ;
#264 = VERTEX_POINT ( 'NONE', #73 ) ;
#265 = CARTESIAN_POINT ( 'NONE',  ( 23.50000000000000000, 0.5000000000000000000, -0.5000000000000000000 ) ) ;
#266 =( NAMED_UNIT ( * ) SI_UNIT ( $, .STERADIAN. ) SOLID_ANGLE_UNIT ( ) );
#267 = ORIENTED_EDGE ( 'NONE', *, *, #8, .F. ) ;
#268 = ORIENTED_EDGE ( 'NONE', *, *, #125, .T. ) ;
#269 = DIMENSIONAL_EXPONENTS ( 1.000000000000000000, 0.000000000000000000, 0.000000000000000000, 0.000000000000000000, 0.000000000000000000, 0.000000000000000000, 0.000000000000000000 ) ;
#270 =( NAMED_UNIT ( * ) PLANE_ANGLE_UNIT ( ) SI_UNIT ( $, .RADIAN. ) );
#271 = CARTESIAN_POINT ( 'NONE',  ( -23.50000000000000000, -0.5000000000000000000, 0.5000000000000000000 ) ) ;
#272 = ADVANCED_FACE ( 'NONE', ( #280 ), #229, .F. ) ;
#273 = LINE ( 'NONE', #216, #28 ) ;
#274 = CARTESIAN_POINT ( 'NONE',  ( 23.50000000000000000, -0.4062500000000000000, -0.4062500000000000000 ) ) ;
#275 = CARTESIAN_POINT ( 'NONE',  ( 23.50000000000000000, 0.4062500000000000000, 0.4062500000000000000 ) ) ;
#276 = APPLICATION_CONTEXT ( 'automotive_design' ) ;
#277 = CARTESIAN_POINT ( 'NONE',  ( -23.50000000000000000, 0.5000000000000000000, 0.5000000000000000000 ) ) ;
#278 =( GEOMETRIC_REPRESENTATION_CONTEXT ( 3 ) GLOBAL_UNCERTAINTY_ASSIGNED_CONTEXT ( ( #342 ) ) GLOBAL_UNIT_ASSIGNED_CONTEXT ( ( #195, #270, #302 ) ) REPRESENTATION_CONTEXT ( 'NONE', 'WORKASPACE' ) );
#279 = PLANE ( 'NONE',  #172 ) ;
#280 = FACE_OUTER_BOUND ( 'NONE', #119, .T. ) ;
#281 = ADVANCED_FACE ( 'NONE', ( #150, #222 ), #251, .T. ) ;
#282 = LINE ( 'NONE', #176, #138 ) ;
#283 = CARTESIAN_POINT ( 'NONE',  ( -23.50000000000000000, -0.5000000000000000000, -0.5000000000000000000 ) ) ;
#284 =( NAMED_UNIT ( * ) PLANE_ANGLE_UNIT ( ) SI_UNIT ( $, .RADIAN. ) );
#285 = ORIENTED_EDGE ( 'NONE', *, *, #322, .T. ) ;
#286 = EDGE_CURVE ( 'NONE', #33, #338, #225, .T. ) ;
#287 = VECTOR ( 'NONE', #204, 39.37007874015748143 ) ;
#288 = SURFACE_STYLE_FILL_AREA ( #56 ) ;
#289 = ORIENTED_EDGE ( 'NONE', *, *, #55, .T. ) ;
#290 = VECTOR ( 'NONE', #294, 39.37007874015748143 ) ;
#291 = PRODUCT_DEFINITION_SHAPE ( 'NONE', 'NONE',  #43 ) ;
#292 = VERTEX_POINT ( 'NONE', #21 ) ;
#293 = CARTESIAN_POINT ( 'NONE',  ( 23.50000000000000000, -0.4062500000000000000, 0.000000000000000000 ) ) ;
#294 = DIRECTION ( 'NONE',  ( -0.000000000000000000, -1.000000000000000000, -0.000000000000000000 ) ) ;
#295 = EDGE_CURVE ( 'NONE', #338, #264, #121, .T. ) ;
#296 = ORIENTED_EDGE ( 'NONE', *, *, #286, .F. ) ;
#297 = DIMENSIONAL_EXPONENTS ( 1.000000000000000000, 0.000000000000000000, 0.000000000000000000, 0.000000000000000000, 0.000000000000000000, 0.000000000000000000, 0.000000000000000000 ) ;
#298 = SURFACE_SIDE_STYLE ('',( #324 ) ) ;
#299 = DIRECTION ( 'NONE',  ( -0.000000000000000000, -1.000000000000000000, -0.000000000000000000 ) ) ;
#300 = EDGE_CURVE ( 'NONE', #6, #346, #131, .T. ) ;
#301 = LINE ( 'NONE', #66, #337 ) ;
#302 =( NAMED_UNIT ( * ) SI_UNIT ( $, .STERADIAN. ) SOLID_ANGLE_UNIT ( ) );
#303 = APPLICATION_CONTEXT ( 'automotive_design' ) ;
#304 = PRESENTATION_LAYER_ASSIGNMENT (  '', '', ( #171 ) ) ;
#305 = LINE ( 'NONE', #178, #156 ) ;
#306 = AXIS2_PLACEMENT_3D ( 'NONE', #20, #118, #343 ) ;
#307 = FACE_OUTER_BOUND ( 'NONE', #335, .T. ) ;
#308 = VERTEX_POINT ( 'NONE', #314 ) ;
#309 = DIRECTION ( 'NONE',  ( 0.000000000000000000, 1.000000000000000000, 0.000000000000000000 ) ) ;
#310 = VERTEX_POINT ( 'NONE', #135 ) ;
#311 = FACE_OUTER_BOUND ( 'NONE', #47, .T. ) ;
#312 = DIRECTION ( 'NONE',  ( 0.000000000000000000, 0.000000000000000000, 1.000000000000000000 ) ) ;
#313 = ORIENTED_EDGE ( 'NONE', *, *, #14, .T. ) ;
#314 = CARTESIAN_POINT ( 'NONE',  ( -23.50000000000000000, 0.5000000000000000000, 0.5000000000000000000 ) ) ;
#315 = VERTEX_POINT ( 'NONE', #207 ) ;
#316 = DIRECTION ( 'NONE',  ( 0.000000000000000000, 0.000000000000000000, -1.000000000000000000 ) ) ;
#317 = ORIENTED_EDGE ( 'NONE', *, *, #133, .T. ) ;
#318 = PRESENTATION_STYLE_ASSIGNMENT (( #105 ) ) ;
#319 = ORIENTED_EDGE ( 'NONE', *, *, #99, .T. ) ;
#320 = PRODUCT ( 'WCP-1584 Rev1', 'WCP-1584 Rev1', '', ( #31 ) ) ;
#321 = FILL_AREA_STYLE_COLOUR ( '', #110 ) ;
#322 = EDGE_CURVE ( 'NONE', #136, #33, #184, .T. ) ;
#323 = LENGTH_MEASURE_WITH_UNIT ( LENGTH_MEASURE( 0.02539999999999999897 ), #1 );
#324 = SURFACE_STYLE_FILL_AREA ( #211 ) ;
#325 = AXIS2_PLACEMENT_3D ( 'NONE', #201, #312, #256 ) ;
#326 = ORIENTED_EDGE ( 'NONE', *, *, #254, .F. ) ;
#327 = VECTOR ( 'NONE', #246, 39.37007874015748143 ) ;
#328 = DIRECTION ( 'NONE',  ( 0.000000000000000000, 0.000000000000000000, 1.000000000000000000 ) ) ;
#329 = EDGE_CURVE ( 'NONE', #292, #338, #164, .T. ) ;
#330 = DIRECTION ( 'NONE',  ( 0.000000000000000000, 0.000000000000000000, -1.000000000000000000 ) ) ;
#331 = PLANE ( 'NONE',  #200 ) ;
#332 = DIRECTION ( 'NONE',  ( -1.000000000000000000, -0.000000000000000000, -0.000000000000000000 ) ) ;
#333 = MECHANICAL_DESIGN_GEOMETRIC_PRESENTATION_REPRESENTATION (  '', ( #171 ), #35 ) ;
#334 = CARTESIAN_POINT ( 'NONE',  ( 23.50000000000000000, 0.000000000000000000, -0.4062500000000000000 ) ) ;
#335 = EDGE_LOOP ( 'NONE', ( #347, #223, #151, #30 ) ) ;
#336 = LINE ( 'NONE', #334, #7 ) ;
#337 = VECTOR ( 'NONE', #299, 39.37007874015748143 ) ;
#338 = VERTEX_POINT ( 'NONE', #186 ) ;
#339 = DIRECTION ( 'NONE',  ( 0.000000000000000000, 1.000000000000000000, 0.000000000000000000 ) ) ;
#340 = DIRECTION ( 'NONE',  ( -1.000000000000000000, 0.000000000000000000, -0.000000000000000000 ) ) ;
#341 = VECTOR ( 'NONE', #316, 39.37007874015748143 ) ;
#342 = UNCERTAINTY_MEASURE_WITH_UNIT (LENGTH_MEASURE( 1.000000000000000082E-05 ), #195, 'distance_accuracy_value', 'NONE');
#343 = DIRECTION ( 'NONE',  ( 0.000000000000000000, 0.000000000000000000, -1.000000000000000000 ) ) ;
#344 = ORIENTED_EDGE ( 'NONE', *, *, #81, .T. ) ;
#345 = VECTOR ( 'NONE', #243, 39.37007874015748143 ) ;
#346 = VERTEX_POINT ( 'NONE', #232 ) ;
#347 = ORIENTED_EDGE ( 'NONE', *, *, #262, .T. ) ;
ENDSEC;
END-ISO-10303-21;
