ISO-10303-21;
HEADER;
FILE_DESCRIPTION (( 'STEP AP214' ),
    '1' );
FILE_NAME ('WCP-1271 Rev1.step',
    '2023-11-30T02:21:54',
    ( '' ),
    ( '' ),
    'SwSTEP 2.0',
    'SolidWorks 2022',
    '' );
FILE_SCHEMA (( 'AUTOMOTIVE_DESIGN' ));
ENDSEC;

DATA;
#1 = DIRECTION ( 'NONE',  ( -1.000000000000000000, -0.000000000000000000, -0.000000000000000000 ) ) ;
#2 = CIRCLE ( 'NONE', #95, 0.5625000000000000000 ) ;
#3 =( LENGTH_UNIT ( ) NAMED_UNIT ( * ) SI_UNIT ( $, .METRE. ) );
#4 = PRESENTATION_STYLE_ASSIGNMENT (( #98 ) ) ;
#5 = CARTESIAN_POINT ( 'NONE',  ( 23.50000000000000000, 0.000000000000000000, 0.000000000000000000 ) ) ;
#6 = VECTOR ( 'NONE', #14, 39.37007874015748143 ) ;
#7 = LINE ( 'NONE', #153, #184 ) ;
#8 = LINE ( 'NONE', #142, #6 ) ;
#9 = PLANE ( 'NONE',  #178 ) ;
#10 = UNCERTAINTY_MEASURE_WITH_UNIT (LENGTH_MEASURE( 1.000000000000000082E-05 ), #19, 'distance_accuracy_value', 'NONE');
#11 = ADVANCED_BREP_SHAPE_REPRESENTATION ( 'WCP-1271 Rev1', ( #86, #112 ), #122 ) ;
#12 = ORIENTED_EDGE ( 'NONE', *, *, #168, .T. ) ;
#13 = PRODUCT_DEFINITION_FORMATION_WITH_SPECIFIED_SOURCE ( 'ANY', '', #192, .NOT_KNOWN. ) ;
#14 = DIRECTION ( 'NONE',  ( -1.000000000000000000, -0.000000000000000000, -0.000000000000000000 ) ) ;
#15 = CARTESIAN_POINT ( 'NONE',  ( 23.50000000000000000, 0.000000000000000000, 0.000000000000000000 ) ) ;
#16 = SURFACE_SIDE_STYLE ('',( #113 ) ) ;
#17 = COLOUR_RGB ( '',0.2980392156862745057, 0.2980392156862745057, 0.2980392156862745057 ) ;
#18 = CYLINDRICAL_SURFACE ( 'NONE', #22, 0.6244999999999999440 ) ;
#19 =( CONVERSION_BASED_UNIT ( 'INCH', #71 ) LENGTH_UNIT ( ) NAMED_UNIT ( #91 ) );
#20 = DIRECTION ( 'NONE',  ( 0.000000000000000000, 0.000000000000000000, 1.000000000000000000 ) ) ;
#21 = LINE ( 'NONE', #75, #80 ) ;
#22 = AXIS2_PLACEMENT_3D ( 'NONE', #90, #163, #78 ) ;
#23 = FILL_AREA_STYLE ('',( #116 ) ) ;
#24 = ADVANCED_FACE ( 'NONE', ( #203, #40 ), #9, .T. ) ;
#25 = ORIENTED_EDGE ( 'NONE', *, *, #136, .F. ) ;
#26 = EDGE_LOOP ( 'NONE', ( #79, #188 ) ) ;
#27 = EDGE_LOOP ( 'NONE', ( #219, #141, #124, #171 ) ) ;
#28 = COLOUR_RGB ( '',0.2980392156862745057, 0.2980392156862745057, 0.2980392156862745057 ) ;
#29 = CARTESIAN_POINT ( 'NONE',  ( -23.50000000000000000, 0.000000000000000000, 0.000000000000000000 ) ) ;
#30 = APPLICATION_CONTEXT ( 'automotive_design' ) ;
#31 = AXIS2_PLACEMENT_3D ( 'NONE', #202, #97, #180 ) ;
#32 = DIRECTION ( 'NONE',  ( 1.000000000000000000, 0.000000000000000000, 0.000000000000000000 ) ) ;
#33 = DIRECTION ( 'NONE',  ( 0.000000000000000000, 0.000000000000000000, -1.000000000000000000 ) ) ;
#34 = PRESENTATION_LAYER_ASSIGNMENT (  '', '', ( #158 ) ) ;
#35 =( CONVERSION_BASED_UNIT ( 'INCH', #200 ) LENGTH_UNIT ( ) NAMED_UNIT ( #94 ) );
#36 = SURFACE_SIDE_STYLE ('',( #117 ) ) ;
#37 = AXIS2_PLACEMENT_3D ( 'NONE', #111, #198, #93 ) ;
#38 = EDGE_CURVE ( 'NONE', #157, #81, #8, .T. ) ;
#39 = ORIENTED_EDGE ( 'NONE', *, *, #119, .F. ) ;
#40 = FACE_BOUND ( 'NONE', #104, .T. ) ;
#41 = PRESENTATION_LAYER_ASSIGNMENT (  '', '', ( #130 ) ) ;
#42 = VERTEX_POINT ( 'NONE', #87 ) ;
#43 = ORIENTED_EDGE ( 'NONE', *, *, #106, .T. ) ;
#44 = VERTEX_POINT ( 'NONE', #155 ) ;
#45 = AXIS2_PLACEMENT_3D ( 'NONE', #48, #162, #221 ) ;
#46 = FACE_OUTER_BOUND ( 'NONE', #27, .T. ) ;
#47 = CYLINDRICAL_SURFACE ( 'NONE', #37, 0.6244999999999999440 ) ;
#48 = CARTESIAN_POINT ( 'NONE',  ( 23.50000000000000000, 0.000000000000000000, 0.000000000000000000 ) ) ;
#49 = FILL_AREA_STYLE ('',( #193 ) ) ;
#50 = DIMENSIONAL_EXPONENTS ( 1.000000000000000000, 0.000000000000000000, 0.000000000000000000, 0.000000000000000000, 0.000000000000000000, 0.000000000000000000, 0.000000000000000000 ) ;
#51 = CARTESIAN_POINT ( 'NONE',  ( -23.50000000000000000, 0.000000000000000000, 0.000000000000000000 ) ) ;
#52 = PRODUCT_CONTEXT ( 'NONE', #72, 'mechanical' ) ;
#53 =( NAMED_UNIT ( * ) SI_UNIT ( $, .STERADIAN. ) SOLID_ANGLE_UNIT ( ) );
#54 = APPLICATION_PROTOCOL_DEFINITION ( 'draft international standard', 'automotive_design', 1998, #30 ) ;
#55 = AXIS2_PLACEMENT_3D ( 'NONE', #129, #1, #150 ) ;
#56 = LINE ( 'NONE', #57, #181 ) ;
#57 = CARTESIAN_POINT ( 'NONE',  ( 23.50000000000000000, 7.647919260675220484E-17, -0.6244999999999999440 ) ) ;
#58 = DIRECTION ( 'NONE',  ( 0.000000000000000000, 0.000000000000000000, -1.000000000000000000 ) ) ;
#59 = DIRECTION ( 'NONE',  ( 0.000000000000000000, 0.000000000000000000, -1.000000000000000000 ) ) ;
#60 = VERTEX_POINT ( 'NONE', #190 ) ;
#61 = UNCERTAINTY_MEASURE_WITH_UNIT (LENGTH_MEASURE( 1.000000000000000082E-05 ), #151, 'distance_accuracy_value', 'NONE');
#62 = ORIENTED_EDGE ( 'NONE', *, *, #107, .F. ) ;
#63 = EDGE_CURVE ( 'NONE', #126, #81, #2, .T. ) ;
#64 = EDGE_LOOP ( 'NONE', ( #105, #220 ) ) ;
#65 = ADVANCED_FACE ( 'NONE', ( #137, #148 ), #131, .F. ) ;
#66 = CARTESIAN_POINT ( 'NONE',  ( 0.000000000000000000, 0.000000000000000000, 0.000000000000000000 ) ) ;
#67 = DIRECTION ( 'NONE',  ( -1.000000000000000000, -0.000000000000000000, -0.000000000000000000 ) ) ;
#68 = AXIS2_PLACEMENT_3D ( 'NONE', #209, #146, #165 ) ;
#69 = FACE_OUTER_BOUND ( 'NONE', #138, .T. ) ;
#70 = DIRECTION ( 'NONE',  ( 1.000000000000000000, 0.000000000000000000, 0.000000000000000000 ) ) ;
#71 = LENGTH_MEASURE_WITH_UNIT ( LENGTH_MEASURE( 0.02539999999999999897 ), #164 );
#72 = APPLICATION_CONTEXT ( 'automotive_design' ) ;
#73 = DIRECTION ( 'NONE',  ( -1.000000000000000000, -0.000000000000000000, -0.000000000000000000 ) ) ;
#74 =( LENGTH_UNIT ( ) NAMED_UNIT ( * ) SI_UNIT ( $, .METRE. ) );
#75 = CARTESIAN_POINT ( 'NONE',  ( 23.50000000000000000, 0.000000000000000000, 0.6244999999999999440 ) ) ;
#76 = MECHANICAL_DESIGN_GEOMETRIC_PRESENTATION_REPRESENTATION (  '', ( #130 ), #84 ) ;
#77 = LENGTH_MEASURE_WITH_UNIT ( LENGTH_MEASURE( 0.02539999999999999897 ), #3 );
#78 = DIRECTION ( 'NONE',  ( 0.000000000000000000, 0.000000000000000000, 1.000000000000000000 ) ) ;
#79 = ORIENTED_EDGE ( 'NONE', *, *, #63, .T. ) ;
#80 = VECTOR ( 'NONE', #167, 39.37007874015748143 ) ;
#81 = VERTEX_POINT ( 'NONE', #223 ) ;
#82 = CARTESIAN_POINT ( 'NONE',  ( 23.50000000000000000, 0.000000000000000000, 0.000000000000000000 ) ) ;
#83 = UNCERTAINTY_MEASURE_WITH_UNIT (LENGTH_MEASURE( 1.000000000000000082E-05 ), #35, 'distance_accuracy_value', 'NONE');
#84 =( GEOMETRIC_REPRESENTATION_CONTEXT ( 3 ) GLOBAL_UNCERTAINTY_ASSIGNED_CONTEXT ( ( #83 ) ) GLOBAL_UNIT_ASSIGNED_CONTEXT ( ( #35, #214, #206 ) ) REPRESENTATION_CONTEXT ( 'NONE', 'WORKASPACE' ) );
#85 = PRODUCT_RELATED_PRODUCT_CATEGORY ( 'part', '', ( #192 ) ) ;
#86 = MANIFOLD_SOLID_BREP ( 'Extrude-Thin2', #191 ) ;
#87 = CARTESIAN_POINT ( 'NONE',  ( 23.50000000000000000, 0.000000000000000000, 0.5625000000000000000 ) ) ;
#88 = CARTESIAN_POINT ( 'NONE',  ( -23.50000000000000000, 0.000000000000000000, 0.5625000000000000000 ) ) ;
#89 = CIRCLE ( 'NONE', #68, 0.6244999999999999440 ) ;
#90 = CARTESIAN_POINT ( 'NONE',  ( 23.50000000000000000, 0.000000000000000000, 0.000000000000000000 ) ) ;
#91 = DIMENSIONAL_EXPONENTS ( 1.000000000000000000, 0.000000000000000000, 0.000000000000000000, 0.000000000000000000, 0.000000000000000000, 0.000000000000000000, 0.000000000000000000 ) ;
#92 = DIRECTION ( 'NONE',  ( 1.000000000000000000, 0.000000000000000000, 0.000000000000000000 ) ) ;
#93 = DIRECTION ( 'NONE',  ( 0.000000000000000000, 0.000000000000000000, 1.000000000000000000 ) ) ;
#94 = DIMENSIONAL_EXPONENTS ( 1.000000000000000000, 0.000000000000000000, 0.000000000000000000, 0.000000000000000000, 0.000000000000000000, 0.000000000000000000, 0.000000000000000000 ) ;
#95 = AXIS2_PLACEMENT_3D ( 'NONE', #29, #215, #59 ) ;
#96 = ADVANCED_FACE ( 'NONE', ( #195 ), #47, .T. ) ;
#97 = DIRECTION ( 'NONE',  ( 1.000000000000000000, 0.000000000000000000, 0.000000000000000000 ) ) ;
#98 = SURFACE_STYLE_USAGE ( .BOTH. , #36 ) ;
#99 = MECHANICAL_DESIGN_GEOMETRIC_PRESENTATION_REPRESENTATION (  '', ( #158 ), #187 ) ;
#100 = PRODUCT_DEFINITION ( 'UNKNOWN', '', #13, #145 ) ;
#101 = ORIENTED_EDGE ( 'NONE', *, *, #106, .F. ) ;
#102 = AXIS2_PLACEMENT_3D ( 'NONE', #5, #152, #58 ) ;
#103 = CIRCLE ( 'NONE', #45, 0.6244999999999999440 ) ;
#104 = EDGE_LOOP ( 'NONE', ( #25, #62 ) ) ;
#105 = ORIENTED_EDGE ( 'NONE', *, *, #123, .T. ) ;
#106 = EDGE_CURVE ( 'NONE', #186, #60, #89, .T. ) ;
#107 = EDGE_CURVE ( 'NONE', #157, #42, #213, .T. ) ;
#108 = EDGE_LOOP ( 'NONE', ( #121, #170, #156, #109 ) ) ;
#109 = ORIENTED_EDGE ( 'NONE', *, *, #218, .F. ) ;
#110 = DIRECTION ( 'NONE',  ( 1.000000000000000000, 0.000000000000000000, 0.000000000000000000 ) ) ;
#111 = CARTESIAN_POINT ( 'NONE',  ( 23.50000000000000000, 0.000000000000000000, 0.000000000000000000 ) ) ;
#112 = AXIS2_PLACEMENT_3D ( 'NONE', #66, #20, #70 ) ;
#113 = SURFACE_STYLE_FILL_AREA ( #49 ) ;
#114 = ADVANCED_FACE ( 'NONE', ( #210 ), #177, .F. ) ;
#115 = AXIS2_PLACEMENT_3D ( 'NONE', #160, #67, #143 ) ;
#116 = FILL_AREA_STYLE_COLOUR ( '', #17 ) ;
#117 = SURFACE_STYLE_FILL_AREA ( #23 ) ;
#118 = AXIS2_PLACEMENT_3D ( 'NONE', #15, #32, #208 ) ;
#119 = EDGE_CURVE ( 'NONE', #81, #126, #127, .T. ) ;
#120 = EDGE_LOOP ( 'NONE', ( #101, #169 ) ) ;
#121 = ORIENTED_EDGE ( 'NONE', *, *, #174, .F. ) ;
#122 =( GEOMETRIC_REPRESENTATION_CONTEXT ( 3 ) GLOBAL_UNCERTAINTY_ASSIGNED_CONTEXT ( ( #61 ) ) GLOBAL_UNIT_ASSIGNED_CONTEXT ( ( #151, #201, #53 ) ) REPRESENTATION_CONTEXT ( 'NONE', 'WORKASPACE' ) );
#123 = EDGE_CURVE ( 'NONE', #139, #44, #103, .T. ) ;
#124 = ORIENTED_EDGE ( 'NONE', *, *, #63, .F. ) ;
#125 = ORIENTED_EDGE ( 'NONE', *, *, #218, .T. ) ;
#126 = VERTEX_POINT ( 'NONE', #88 ) ;
#127 = CIRCLE ( 'NONE', #199, 0.5625000000000000000 ) ;
#128 = CARTESIAN_POINT ( 'NONE',  ( 23.50000000000000000, 0.000000000000000000, 0.000000000000000000 ) ) ;
#129 = CARTESIAN_POINT ( 'NONE',  ( 23.50000000000000000, 0.000000000000000000, 0.000000000000000000 ) ) ;
#130 = STYLED_ITEM ( 'NONE', ( #4 ), #11 ) ;
#131 = PLANE ( 'NONE',  #196 ) ;
#132 = DIRECTION ( 'NONE',  ( 1.000000000000000000, 0.000000000000000000, 0.000000000000000000 ) ) ;
#133 = DIRECTION ( 'NONE',  ( -1.000000000000000000, -0.000000000000000000, -0.000000000000000000 ) ) ;
#134 = CARTESIAN_POINT ( 'NONE',  ( -23.50000000000000000, 0.000000000000000000, 0.6244999999999999440 ) ) ;
#135 = ADVANCED_FACE ( 'NONE', ( #46 ), #175, .F. ) ;
#136 = EDGE_CURVE ( 'NONE', #42, #157, #140, .T. ) ;
#137 = FACE_OUTER_BOUND ( 'NONE', #120, .T. ) ;
#138 = EDGE_LOOP ( 'NONE', ( #205, #207, #125, #43 ) ) ;
#139 = VERTEX_POINT ( 'NONE', #222 ) ;
#140 = CIRCLE ( 'NONE', #154, 0.5625000000000000000 ) ;
#141 = ORIENTED_EDGE ( 'NONE', *, *, #38, .T. ) ;
#142 = CARTESIAN_POINT ( 'NONE',  ( 23.50000000000000000, 6.888638245203861944E-17, -0.5625000000000000000 ) ) ;
#143 = DIRECTION ( 'NONE',  ( 0.000000000000000000, 0.000000000000000000, 1.000000000000000000 ) ) ;
#144 = ADVANCED_FACE ( 'NONE', ( #69 ), #18, .T. ) ;
#145 = PRODUCT_DEFINITION_CONTEXT ( 'detailed design', #30, 'design' ) ;
#146 = DIRECTION ( 'NONE',  ( 1.000000000000000000, 0.000000000000000000, 0.000000000000000000 ) ) ;
#147 = SHAPE_DEFINITION_REPRESENTATION ( #161, #11 ) ;
#148 = FACE_BOUND ( 'NONE', #26, .T. ) ;
#149 = DIRECTION ( 'NONE',  ( 0.000000000000000000, 0.000000000000000000, -1.000000000000000000 ) ) ;
#150 = DIRECTION ( 'NONE',  ( 0.000000000000000000, 0.000000000000000000, 1.000000000000000000 ) ) ;
#151 =( CONVERSION_BASED_UNIT ( 'INCH', #77 ) LENGTH_UNIT ( ) NAMED_UNIT ( #50 ) );
#152 = DIRECTION ( 'NONE',  ( 1.000000000000000000, 0.000000000000000000, 0.000000000000000000 ) ) ;
#153 = CARTESIAN_POINT ( 'NONE',  ( 23.50000000000000000, 0.000000000000000000, 0.5625000000000000000 ) ) ;
#154 = AXIS2_PLACEMENT_3D ( 'NONE', #128, #110, #176 ) ;
#155 = CARTESIAN_POINT ( 'NONE',  ( 23.50000000000000000, 7.647919260675220484E-17, -0.6244999999999999440 ) ) ;
#156 = ORIENTED_EDGE ( 'NONE', *, *, #216, .T. ) ;
#157 = VERTEX_POINT ( 'NONE', #182 ) ;
#158 = STYLED_ITEM ( 'NONE', ( #212 ), #86 ) ;
#159 = DIRECTION ( 'NONE',  ( 1.000000000000000000, 0.000000000000000000, 0.000000000000000000 ) ) ;
#160 = CARTESIAN_POINT ( 'NONE',  ( 23.50000000000000000, 0.000000000000000000, 0.000000000000000000 ) ) ;
#161 = PRODUCT_DEFINITION_SHAPE ( 'NONE', 'NONE',  #100 ) ;
#162 = DIRECTION ( 'NONE',  ( 1.000000000000000000, 0.000000000000000000, 0.000000000000000000 ) ) ;
#163 = DIRECTION ( 'NONE',  ( -1.000000000000000000, -0.000000000000000000, -0.000000000000000000 ) ) ;
#164 =( LENGTH_UNIT ( ) NAMED_UNIT ( * ) SI_UNIT ( $, .METRE. ) );
#165 = DIRECTION ( 'NONE',  ( 0.000000000000000000, 0.000000000000000000, -1.000000000000000000 ) ) ;
#166 = CIRCLE ( 'NONE', #102, 0.6244999999999999440 ) ;
#167 = DIRECTION ( 'NONE',  ( -1.000000000000000000, -0.000000000000000000, -0.000000000000000000 ) ) ;
#168 = EDGE_CURVE ( 'NONE', #42, #126, #7, .T. ) ;
#169 = ORIENTED_EDGE ( 'NONE', *, *, #216, .F. ) ;
#170 = ORIENTED_EDGE ( 'NONE', *, *, #183, .T. ) ;
#171 = ORIENTED_EDGE ( 'NONE', *, *, #168, .F. ) ;
#172 = DIRECTION ( 'NONE',  ( 0.000000000000000000, 0.000000000000000000, -1.000000000000000000 ) ) ;
#173 = CIRCLE ( 'NONE', #31, 0.6244999999999999440 ) ;
#174 = EDGE_CURVE ( 'NONE', #44, #139, #166, .T. ) ;
#175 = CYLINDRICAL_SURFACE ( 'NONE', #115, 0.5625000000000000000 ) ;
#176 = DIRECTION ( 'NONE',  ( 0.000000000000000000, 0.000000000000000000, -1.000000000000000000 ) ) ;
#177 = CYLINDRICAL_SURFACE ( 'NONE', #55, 0.5625000000000000000 ) ;
#178 = AXIS2_PLACEMENT_3D ( 'NONE', #82, #159, #172 ) ;
#179 = CARTESIAN_POINT ( 'NONE',  ( -23.50000000000000000, 0.000000000000000000, 0.000000000000000000 ) ) ;
#180 = DIRECTION ( 'NONE',  ( 0.000000000000000000, 0.000000000000000000, -1.000000000000000000 ) ) ;
#181 = VECTOR ( 'NONE', #133, 39.37007874015748143 ) ;
#182 = CARTESIAN_POINT ( 'NONE',  ( 23.50000000000000000, 6.888638245203861944E-17, -0.5625000000000000000 ) ) ;
#183 = EDGE_CURVE ( 'NONE', #44, #60, #56, .T. ) ;
#184 = VECTOR ( 'NONE', #73, 39.37007874015748143 ) ;
#185 = APPLICATION_PROTOCOL_DEFINITION ( 'draft international standard', 'automotive_design', 1998, #72 ) ;
#186 = VERTEX_POINT ( 'NONE', #134 ) ;
#187 =( GEOMETRIC_REPRESENTATION_CONTEXT ( 3 ) GLOBAL_UNCERTAINTY_ASSIGNED_CONTEXT ( ( #10 ) ) GLOBAL_UNIT_ASSIGNED_CONTEXT ( ( #19, #197, #194 ) ) REPRESENTATION_CONTEXT ( 'NONE', 'WORKASPACE' ) );
#188 = ORIENTED_EDGE ( 'NONE', *, *, #119, .T. ) ;
#189 = ORIENTED_EDGE ( 'NONE', *, *, #38, .F. ) ;
#190 = CARTESIAN_POINT ( 'NONE',  ( -23.50000000000000000, 7.647919260675220484E-17, -0.6244999999999999440 ) ) ;
#191 = CLOSED_SHELL ( 'NONE', ( #135, #96, #24, #65, #144, #114 ) ) ;
#192 = PRODUCT ( 'WCP-1271 Rev1', 'WCP-1271 Rev1', '', ( #52 ) ) ;
#193 = FILL_AREA_STYLE_COLOUR ( '', #28 ) ;
#194 =( NAMED_UNIT ( * ) SI_UNIT ( $, .STERADIAN. ) SOLID_ANGLE_UNIT ( ) );
#195 = FACE_OUTER_BOUND ( 'NONE', #108, .T. ) ;
#196 = AXIS2_PLACEMENT_3D ( 'NONE', #179, #92, #149 ) ;
#197 =( NAMED_UNIT ( * ) PLANE_ANGLE_UNIT ( ) SI_UNIT ( $, .RADIAN. ) );
#198 = DIRECTION ( 'NONE',  ( -1.000000000000000000, -0.000000000000000000, -0.000000000000000000 ) ) ;
#199 = AXIS2_PLACEMENT_3D ( 'NONE', #51, #132, #33 ) ;
#200 = LENGTH_MEASURE_WITH_UNIT ( LENGTH_MEASURE( 0.02539999999999999897 ), #74 );
#201 =( NAMED_UNIT ( * ) PLANE_ANGLE_UNIT ( ) SI_UNIT ( $, .RADIAN. ) );
#202 = CARTESIAN_POINT ( 'NONE',  ( -23.50000000000000000, 0.000000000000000000, 0.000000000000000000 ) ) ;
#203 = FACE_OUTER_BOUND ( 'NONE', #64, .T. ) ;
#204 = ORIENTED_EDGE ( 'NONE', *, *, #107, .T. ) ;
#205 = ORIENTED_EDGE ( 'NONE', *, *, #183, .F. ) ;
#206 =( NAMED_UNIT ( * ) SI_UNIT ( $, .STERADIAN. ) SOLID_ANGLE_UNIT ( ) );
#207 = ORIENTED_EDGE ( 'NONE', *, *, #123, .F. ) ;
#208 = DIRECTION ( 'NONE',  ( 0.000000000000000000, 0.000000000000000000, -1.000000000000000000 ) ) ;
#209 = CARTESIAN_POINT ( 'NONE',  ( -23.50000000000000000, 0.000000000000000000, 0.000000000000000000 ) ) ;
#210 = FACE_OUTER_BOUND ( 'NONE', #217, .T. ) ;
#211 = SURFACE_STYLE_USAGE ( .BOTH. , #16 ) ;
#212 = PRESENTATION_STYLE_ASSIGNMENT (( #211 ) ) ;
#213 = CIRCLE ( 'NONE', #118, 0.5625000000000000000 ) ;
#214 =( NAMED_UNIT ( * ) PLANE_ANGLE_UNIT ( ) SI_UNIT ( $, .RADIAN. ) );
#215 = DIRECTION ( 'NONE',  ( 1.000000000000000000, 0.000000000000000000, 0.000000000000000000 ) ) ;
#216 = EDGE_CURVE ( 'NONE', #60, #186, #173, .T. ) ;
#217 = EDGE_LOOP ( 'NONE', ( #189, #204, #12, #39 ) ) ;
#218 = EDGE_CURVE ( 'NONE', #139, #186, #21, .T. ) ;
#219 = ORIENTED_EDGE ( 'NONE', *, *, #136, .T. ) ;
#220 = ORIENTED_EDGE ( 'NONE', *, *, #174, .T. ) ;
#221 = DIRECTION ( 'NONE',  ( 0.000000000000000000, 0.000000000000000000, -1.000000000000000000 ) ) ;
#222 = CARTESIAN_POINT ( 'NONE',  ( 23.50000000000000000, 0.000000000000000000, 0.6244999999999999440 ) ) ;
#223 = CARTESIAN_POINT ( 'NONE',  ( -23.50000000000000000, 6.888638245203861944E-17, -0.5625000000000000000 ) ) ;
ENDSEC;
END-ISO-10303-21;
