ISO-10303-21;
HEADER;
FILE_DESCRIPTION (( 'STEP AP214' ),
    '1' );
FILE_NAME ('WCP-1270 Rev1.step',
    '2023-11-30T02:21:38',
    ( '' ),
    ( '' ),
    'SwSTEP 2.0',
    'SolidWorks 2022',
    '' );
FILE_SCHEMA (( 'AUTOMOTIVE_DESIGN' ));
ENDSEC;

DATA;
#1 = SURFACE_STYLE_USAGE ( .BOTH. , #156 ) ;
#2 =( LENGTH_UNIT ( ) NAMED_UNIT ( * ) SI_UNIT ( $, .METRE. ) );
#3 = AXIS2_PLACEMENT_3D ( 'NONE', #63, #205, #103 ) ;
#4 = FILL_AREA_STYLE_COLOUR ( '', #209 ) ;
#5 = DIRECTION ( 'NONE',  ( -1.000000000000000000, -0.000000000000000000, -0.000000000000000000 ) ) ;
#6 = AXIS2_PLACEMENT_3D ( 'NONE', #181, #182, #58 ) ;
#7 = ORIENTED_EDGE ( 'NONE', *, *, #223, .T. ) ;
#8 = ORIENTED_EDGE ( 'NONE', *, *, #165, .T. ) ;
#9 = ORIENTED_EDGE ( 'NONE', *, *, #88, .F. ) ;
#10 = FACE_OUTER_BOUND ( 'NONE', #123, .T. ) ;
#11 =( GEOMETRIC_REPRESENTATION_CONTEXT ( 3 ) GLOBAL_UNCERTAINTY_ASSIGNED_CONTEXT ( ( #170 ) ) GLOBAL_UNIT_ASSIGNED_CONTEXT ( ( #140, #121, #67 ) ) REPRESENTATION_CONTEXT ( 'NONE', 'WORKASPACE' ) );
#12 = DIRECTION ( 'NONE',  ( 1.000000000000000000, 0.000000000000000000, 0.000000000000000000 ) ) ;
#13 = ADVANCED_FACE ( 'NONE', ( #129, #95 ), #28, .F. ) ;
#14 = CARTESIAN_POINT ( 'NONE',  ( -23.50000000000000000, 0.000000000000000000, 0.4375000000000000555 ) ) ;
#15 = CARTESIAN_POINT ( 'NONE',  ( 23.50000000000000000, 0.000000000000000000, 0.4994999999999999996 ) ) ;
#16 = EDGE_CURVE ( 'NONE', #66, #164, #179, .T. ) ;
#17 = CIRCLE ( 'NONE', #21, 0.4994999999999999996 ) ;
#18 =( LENGTH_UNIT ( ) NAMED_UNIT ( * ) SI_UNIT ( $, .METRE. ) );
#19 = ORIENTED_EDGE ( 'NONE', *, *, #223, .F. ) ;
#20 = PRODUCT_CONTEXT ( 'NONE', #35, 'mechanical' ) ;
#21 = AXIS2_PLACEMENT_3D ( 'NONE', #184, #12, #31 ) ;
#22 = FILL_AREA_STYLE ('',( #4 ) ) ;
#23 = VERTEX_POINT ( 'NONE', #79 ) ;
#24 = CARTESIAN_POINT ( 'NONE',  ( 23.50000000000000000, 0.000000000000000000, 0.000000000000000000 ) ) ;
#25 = VECTOR ( 'NONE', #152, 39.37007874015748143 ) ;
#26 = CARTESIAN_POINT ( 'NONE',  ( 23.50000000000000000, 6.117110761741029900E-17, -0.4994999999999999996 ) ) ;
#27 = ORIENTED_EDGE ( 'NONE', *, *, #71, .F. ) ;
#28 = PLANE ( 'NONE',  #6 ) ;
#29 = VERTEX_POINT ( 'NONE', #94 ) ;
#30 = PRODUCT_DEFINITION_FORMATION_WITH_SPECIFIED_SOURCE ( 'ANY', '', #187, .NOT_KNOWN. ) ;
#31 = DIRECTION ( 'NONE',  ( 0.000000000000000000, 0.000000000000000000, -1.000000000000000000 ) ) ;
#32 = DIRECTION ( 'NONE',  ( -1.000000000000000000, -0.000000000000000000, -0.000000000000000000 ) ) ;
#33 = DIRECTION ( 'NONE',  ( 0.000000000000000000, 0.000000000000000000, 1.000000000000000000 ) ) ;
#34 = PRODUCT_DEFINITION ( 'UNKNOWN', '', #30, #72 ) ;
#35 = APPLICATION_CONTEXT ( 'automotive_design' ) ;
#36 =( NAMED_UNIT ( * ) PLANE_ANGLE_UNIT ( ) SI_UNIT ( $, .RADIAN. ) );
#37 = AXIS2_PLACEMENT_3D ( 'NONE', #212, #196, #42 ) ;
#38 = DIRECTION ( 'NONE',  ( 1.000000000000000000, 0.000000000000000000, 0.000000000000000000 ) ) ;
#39 =( GEOMETRIC_REPRESENTATION_CONTEXT ( 3 ) GLOBAL_UNCERTAINTY_ASSIGNED_CONTEXT ( ( #159 ) ) GLOBAL_UNIT_ASSIGNED_CONTEXT ( ( #190, #36, #158 ) ) REPRESENTATION_CONTEXT ( 'NONE', 'WORKASPACE' ) );
#40 = EDGE_LOOP ( 'NONE', ( #177, #194, #51, #8 ) ) ;
#41 = EDGE_LOOP ( 'NONE', ( #9, #19 ) ) ;
#42 = DIRECTION ( 'NONE',  ( 0.000000000000000000, 0.000000000000000000, -1.000000000000000000 ) ) ;
#43 = ORIENTED_EDGE ( 'NONE', *, *, #106, .T. ) ;
#44 = EDGE_CURVE ( 'NONE', #164, #66, #104, .T. ) ;
#45 = CARTESIAN_POINT ( 'NONE',  ( 23.50000000000000000, 5.357829746269670744E-17, -0.4375000000000000555 ) ) ;
#46 = CARTESIAN_POINT ( 'NONE',  ( 23.50000000000000000, 0.000000000000000000, 0.4375000000000000555 ) ) ;
#47 = FILL_AREA_STYLE_COLOUR ( '', #57 ) ;
#48 = CARTESIAN_POINT ( 'NONE',  ( -23.50000000000000000, 6.117110761741029900E-17, -0.4994999999999999996 ) ) ;
#49 = CARTESIAN_POINT ( 'NONE',  ( -23.50000000000000000, 0.000000000000000000, 0.000000000000000000 ) ) ;
#50 = FILL_AREA_STYLE ('',( #47 ) ) ;
#51 = ORIENTED_EDGE ( 'NONE', *, *, #151, .T. ) ;
#52 = SURFACE_STYLE_FILL_AREA ( #22 ) ;
#53 = ORIENTED_EDGE ( 'NONE', *, *, #78, .T. ) ;
#54 = CARTESIAN_POINT ( 'NONE',  ( 23.50000000000000000, 0.000000000000000000, 0.4994999999999999996 ) ) ;
#55 = VERTEX_POINT ( 'NONE', #45 ) ;
#56 = ORIENTED_EDGE ( 'NONE', *, *, #106, .F. ) ;
#57 = COLOUR_RGB ( '',0.2980392156862745057, 0.2980392156862745057, 0.2980392156862745057 ) ;
#58 = DIRECTION ( 'NONE',  ( 0.000000000000000000, 0.000000000000000000, -1.000000000000000000 ) ) ;
#59 = CARTESIAN_POINT ( 'NONE',  ( 23.50000000000000000, 0.000000000000000000, 0.4375000000000000555 ) ) ;
#60 = FACE_OUTER_BOUND ( 'NONE', #80, .T. ) ;
#61 =( NAMED_UNIT ( * ) PLANE_ANGLE_UNIT ( ) SI_UNIT ( $, .RADIAN. ) );
#62 = STYLED_ITEM ( 'NONE', ( #89 ), #136 ) ;
#63 = CARTESIAN_POINT ( 'NONE',  ( 23.50000000000000000, 0.000000000000000000, 0.000000000000000000 ) ) ;
#64 = DIRECTION ( 'NONE',  ( 0.000000000000000000, 0.000000000000000000, 1.000000000000000000 ) ) ;
#65 = DIRECTION ( 'NONE',  ( -1.000000000000000000, -0.000000000000000000, -0.000000000000000000 ) ) ;
#66 = VERTEX_POINT ( 'NONE', #54 ) ;
#67 =( NAMED_UNIT ( * ) SI_UNIT ( $, .STERADIAN. ) SOLID_ANGLE_UNIT ( ) );
#68 = CARTESIAN_POINT ( 'NONE',  ( 0.000000000000000000, 0.000000000000000000, 0.000000000000000000 ) ) ;
#69 = CIRCLE ( 'NONE', #76, 0.4375000000000000555 ) ;
#70 = LENGTH_MEASURE_WITH_UNIT ( LENGTH_MEASURE( 0.02539999999999999897 ), #2 );
#71 = EDGE_CURVE ( 'NONE', #29, #108, #183, .T. ) ;
#72 = PRODUCT_DEFINITION_CONTEXT ( 'detailed design', #169, 'design' ) ;
#73 = LENGTH_MEASURE_WITH_UNIT ( LENGTH_MEASURE( 0.02539999999999999897 ), #18 );
#74 = DIMENSIONAL_EXPONENTS ( 1.000000000000000000, 0.000000000000000000, 0.000000000000000000, 0.000000000000000000, 0.000000000000000000, 0.000000000000000000, 0.000000000000000000 ) ;
#75 = VERTEX_POINT ( 'NONE', #59 ) ;
#76 = AXIS2_PLACEMENT_3D ( 'NONE', #155, #150, #189 ) ;
#77 = PLANE ( 'NONE',  #105 ) ;
#78 = EDGE_CURVE ( 'NONE', #75, #108, #162, .T. ) ;
#79 = CARTESIAN_POINT ( 'NONE',  ( -23.50000000000000000, 0.000000000000000000, 0.4994999999999999996 ) ) ;
#80 = EDGE_LOOP ( 'NONE', ( #96, #216, #43, #111 ) ) ;
#81 =( GEOMETRIC_REPRESENTATION_CONTEXT ( 3 ) GLOBAL_UNCERTAINTY_ASSIGNED_CONTEXT ( ( #91 ) ) GLOBAL_UNIT_ASSIGNED_CONTEXT ( ( #173, #61, #84 ) ) REPRESENTATION_CONTEXT ( 'NONE', 'WORKASPACE' ) );
#82 = ORIENTED_EDGE ( 'NONE', *, *, #120, .F. ) ;
#83 = ADVANCED_FACE ( 'NONE', ( #10, #149 ), #77, .T. ) ;
#84 =( NAMED_UNIT ( * ) SI_UNIT ( $, .STERADIAN. ) SOLID_ANGLE_UNIT ( ) );
#85 = CYLINDRICAL_SURFACE ( 'NONE', #102, 0.4994999999999999996 ) ;
#86 = DIRECTION ( 'NONE',  ( -1.000000000000000000, -0.000000000000000000, -0.000000000000000000 ) ) ;
#87 = AXIS2_PLACEMENT_3D ( 'NONE', #125, #161, #146 ) ;
#88 = EDGE_CURVE ( 'NONE', #75, #55, #172, .T. ) ;
#89 = PRESENTATION_STYLE_ASSIGNMENT (( #130 ) ) ;
#90 = AXIS2_PLACEMENT_3D ( 'NONE', #199, #167, #126 ) ;
#91 = UNCERTAINTY_MEASURE_WITH_UNIT (LENGTH_MEASURE( 1.000000000000000082E-05 ), #173, 'distance_accuracy_value', 'NONE');
#92 = DIMENSIONAL_EXPONENTS ( 1.000000000000000000, 0.000000000000000000, 0.000000000000000000, 0.000000000000000000, 0.000000000000000000, 0.000000000000000000, 0.000000000000000000 ) ;
#93 = DIRECTION ( 'NONE',  ( 1.000000000000000000, 0.000000000000000000, 0.000000000000000000 ) ) ;
#94 = CARTESIAN_POINT ( 'NONE',  ( -23.50000000000000000, 5.357829746269670744E-17, -0.4375000000000000555 ) ) ;
#95 = FACE_BOUND ( 'NONE', #128, .T. ) ;
#96 = ORIENTED_EDGE ( 'NONE', *, *, #44, .F. ) ;
#97 = CIRCLE ( 'NONE', #124, 0.4994999999999999996 ) ;
#98 = CYLINDRICAL_SURFACE ( 'NONE', #201, 0.4994999999999999996 ) ;
#99 = CYLINDRICAL_SURFACE ( 'NONE', #141, 0.4375000000000000555 ) ;
#100 = EDGE_CURVE ( 'NONE', #164, #113, #110, .T. ) ;
#101 = CARTESIAN_POINT ( 'NONE',  ( 23.50000000000000000, 0.000000000000000000, 0.000000000000000000 ) ) ;
#102 = AXIS2_PLACEMENT_3D ( 'NONE', #117, #186, #33 ) ;
#103 = DIRECTION ( 'NONE',  ( 0.000000000000000000, 0.000000000000000000, -1.000000000000000000 ) ) ;
#104 = CIRCLE ( 'NONE', #114, 0.4994999999999999996 ) ;
#105 = AXIS2_PLACEMENT_3D ( 'NONE', #24, #93, #211 ) ;
#106 = EDGE_CURVE ( 'NONE', #113, #23, #97, .T. ) ;
#107 = CIRCLE ( 'NONE', #3, 0.4375000000000000555 ) ;
#108 = VERTEX_POINT ( 'NONE', #14 ) ;
#109 = ORIENTED_EDGE ( 'NONE', *, *, #174, .T. ) ;
#110 = LINE ( 'NONE', #26, #144 ) ;
#111 = ORIENTED_EDGE ( 'NONE', *, *, #151, .F. ) ;
#112 = ORIENTED_EDGE ( 'NONE', *, *, #44, .T. ) ;
#113 = VERTEX_POINT ( 'NONE', #48 ) ;
#114 = AXIS2_PLACEMENT_3D ( 'NONE', #145, #166, #198 ) ;
#115 = LINE ( 'NONE', #15, #25 ) ;
#116 = CARTESIAN_POINT ( 'NONE',  ( 23.50000000000000000, 5.357829746269670744E-17, -0.4375000000000000555 ) ) ;
#117 = CARTESIAN_POINT ( 'NONE',  ( 23.50000000000000000, 0.000000000000000000, 0.000000000000000000 ) ) ;
#118 = DIRECTION ( 'NONE',  ( 1.000000000000000000, 0.000000000000000000, 0.000000000000000000 ) ) ;
#119 = PRESENTATION_LAYER_ASSIGNMENT (  '', '', ( #62 ) ) ;
#120 = EDGE_CURVE ( 'NONE', #108, #29, #69, .T. ) ;
#121 =( NAMED_UNIT ( * ) PLANE_ANGLE_UNIT ( ) SI_UNIT ( $, .RADIAN. ) );
#122 = DIMENSIONAL_EXPONENTS ( 1.000000000000000000, 0.000000000000000000, 0.000000000000000000, 0.000000000000000000, 0.000000000000000000, 0.000000000000000000, 0.000000000000000000 ) ;
#123 = EDGE_LOOP ( 'NONE', ( #147, #112 ) ) ;
#124 = AXIS2_PLACEMENT_3D ( 'NONE', #49, #118, #135 ) ;
#125 = CARTESIAN_POINT ( 'NONE',  ( -23.50000000000000000, 0.000000000000000000, 0.000000000000000000 ) ) ;
#126 = DIRECTION ( 'NONE',  ( 0.000000000000000000, 0.000000000000000000, -1.000000000000000000 ) ) ;
#127 = ORIENTED_EDGE ( 'NONE', *, *, #120, .T. ) ;
#128 = EDGE_LOOP ( 'NONE', ( #127, #213 ) ) ;
#129 = FACE_OUTER_BOUND ( 'NONE', #143, .T. ) ;
#130 = SURFACE_STYLE_USAGE ( .BOTH. , #203 ) ;
#131 = CLOSED_SHELL ( 'NONE', ( #204, #132, #83, #13, #137, #195 ) ) ;
#132 = ADVANCED_FACE ( 'NONE', ( #60 ), #98, .T. ) ;
#133 = CYLINDRICAL_SURFACE ( 'NONE', #139, 0.4375000000000000555 ) ;
#134 = DIRECTION ( 'NONE',  ( 0.000000000000000000, 0.000000000000000000, 1.000000000000000000 ) ) ;
#135 = DIRECTION ( 'NONE',  ( 0.000000000000000000, 0.000000000000000000, -1.000000000000000000 ) ) ;
#136 = MANIFOLD_SOLID_BREP ( 'Extrude-Thin2', #131 ) ;
#137 = ADVANCED_FACE ( 'NONE', ( #200 ), #85, .T. ) ;
#138 = DIRECTION ( 'NONE',  ( -1.000000000000000000, -0.000000000000000000, -0.000000000000000000 ) ) ;
#139 = AXIS2_PLACEMENT_3D ( 'NONE', #185, #32, #134 ) ;
#140 =( CONVERSION_BASED_UNIT ( 'INCH', #70 ) LENGTH_UNIT ( ) NAMED_UNIT ( #74 ) );
#141 = AXIS2_PLACEMENT_3D ( 'NONE', #171, #86, #153 ) ;
#142 = APPLICATION_PROTOCOL_DEFINITION ( 'draft international standard', 'automotive_design', 1998, #35 ) ;
#143 = EDGE_LOOP ( 'NONE', ( #157, #56 ) ) ;
#144 = VECTOR ( 'NONE', #65, 39.37007874015748143 ) ;
#145 = CARTESIAN_POINT ( 'NONE',  ( 23.50000000000000000, 0.000000000000000000, 0.000000000000000000 ) ) ;
#146 = DIRECTION ( 'NONE',  ( 0.000000000000000000, 0.000000000000000000, -1.000000000000000000 ) ) ;
#147 = ORIENTED_EDGE ( 'NONE', *, *, #16, .T. ) ;
#148 = MECHANICAL_DESIGN_GEOMETRIC_PRESENTATION_REPRESENTATION (  '', ( #215 ), #39 ) ;
#149 = FACE_BOUND ( 'NONE', #41, .T. ) ;
#150 = DIRECTION ( 'NONE',  ( 1.000000000000000000, 0.000000000000000000, 0.000000000000000000 ) ) ;
#151 = EDGE_CURVE ( 'NONE', #66, #23, #115, .T. ) ;
#152 = DIRECTION ( 'NONE',  ( -1.000000000000000000, -0.000000000000000000, -0.000000000000000000 ) ) ;
#153 = DIRECTION ( 'NONE',  ( 0.000000000000000000, 0.000000000000000000, 1.000000000000000000 ) ) ;
#154 = DIRECTION ( 'NONE',  ( -1.000000000000000000, -0.000000000000000000, -0.000000000000000000 ) ) ;
#155 = CARTESIAN_POINT ( 'NONE',  ( -23.50000000000000000, 0.000000000000000000, 0.000000000000000000 ) ) ;
#156 = SURFACE_SIDE_STYLE ('',( #52 ) ) ;
#157 = ORIENTED_EDGE ( 'NONE', *, *, #165, .F. ) ;
#158 =( NAMED_UNIT ( * ) SI_UNIT ( $, .STERADIAN. ) SOLID_ANGLE_UNIT ( ) );
#159 = UNCERTAINTY_MEASURE_WITH_UNIT (LENGTH_MEASURE( 1.000000000000000082E-05 ), #190, 'distance_accuracy_value', 'NONE');
#160 = DIRECTION ( 'NONE',  ( 0.000000000000000000, 0.000000000000000000, 1.000000000000000000 ) ) ;
#161 = DIRECTION ( 'NONE',  ( 1.000000000000000000, 0.000000000000000000, 0.000000000000000000 ) ) ;
#162 = LINE ( 'NONE', #46, #163 ) ;
#163 = VECTOR ( 'NONE', #5, 39.37007874015748143 ) ;
#164 = VERTEX_POINT ( 'NONE', #217 ) ;
#165 = EDGE_CURVE ( 'NONE', #23, #113, #17, .T. ) ;
#166 = DIRECTION ( 'NONE',  ( 1.000000000000000000, 0.000000000000000000, 0.000000000000000000 ) ) ;
#167 = DIRECTION ( 'NONE',  ( 1.000000000000000000, 0.000000000000000000, 0.000000000000000000 ) ) ;
#168 = AXIS2_PLACEMENT_3D ( 'NONE', #68, #160, #38 ) ;
#169 = APPLICATION_CONTEXT ( 'automotive_design' ) ;
#170 = UNCERTAINTY_MEASURE_WITH_UNIT (LENGTH_MEASURE( 1.000000000000000082E-05 ), #140, 'distance_accuracy_value', 'NONE');
#171 = CARTESIAN_POINT ( 'NONE',  ( 23.50000000000000000, 0.000000000000000000, 0.000000000000000000 ) ) ;
#172 = CIRCLE ( 'NONE', #37, 0.4375000000000000555 ) ;
#173 =( CONVERSION_BASED_UNIT ( 'INCH', #202 ) LENGTH_UNIT ( ) NAMED_UNIT ( #92 ) );
#174 = EDGE_CURVE ( 'NONE', #55, #29, #218, .T. ) ;
#175 = PRESENTATION_STYLE_ASSIGNMENT (( #1 ) ) ;
#176 = PRESENTATION_LAYER_ASSIGNMENT (  '', '', ( #215 ) ) ;
#177 = ORIENTED_EDGE ( 'NONE', *, *, #100, .F. ) ;
#178 = EDGE_LOOP ( 'NONE', ( #192, #109, #82, #180 ) ) ;
#179 = CIRCLE ( 'NONE', #90, 0.4994999999999999996 ) ;
#180 = ORIENTED_EDGE ( 'NONE', *, *, #78, .F. ) ;
#181 = CARTESIAN_POINT ( 'NONE',  ( -23.50000000000000000, 0.000000000000000000, 0.000000000000000000 ) ) ;
#182 = DIRECTION ( 'NONE',  ( 1.000000000000000000, 0.000000000000000000, 0.000000000000000000 ) ) ;
#183 = CIRCLE ( 'NONE', #87, 0.4375000000000000555 ) ;
#184 = CARTESIAN_POINT ( 'NONE',  ( -23.50000000000000000, 0.000000000000000000, 0.000000000000000000 ) ) ;
#185 = CARTESIAN_POINT ( 'NONE',  ( 23.50000000000000000, 0.000000000000000000, 0.000000000000000000 ) ) ;
#186 = DIRECTION ( 'NONE',  ( -1.000000000000000000, -0.000000000000000000, -0.000000000000000000 ) ) ;
#187 = PRODUCT ( 'WCP-1270 Rev1', 'WCP-1270 Rev1', '', ( #20 ) ) ;
#188 =( LENGTH_UNIT ( ) NAMED_UNIT ( * ) SI_UNIT ( $, .METRE. ) );
#189 = DIRECTION ( 'NONE',  ( 0.000000000000000000, 0.000000000000000000, -1.000000000000000000 ) ) ;
#190 =( CONVERSION_BASED_UNIT ( 'INCH', #73 ) LENGTH_UNIT ( ) NAMED_UNIT ( #122 ) );
#191 = ADVANCED_BREP_SHAPE_REPRESENTATION ( 'WCP-1270 Rev1', ( #136, #168 ), #11 ) ;
#192 = ORIENTED_EDGE ( 'NONE', *, *, #88, .T. ) ;
#193 = VECTOR ( 'NONE', #154, 39.37007874015748143 ) ;
#194 = ORIENTED_EDGE ( 'NONE', *, *, #16, .F. ) ;
#195 = ADVANCED_FACE ( 'NONE', ( #221 ), #133, .F. ) ;
#196 = DIRECTION ( 'NONE',  ( 1.000000000000000000, 0.000000000000000000, 0.000000000000000000 ) ) ;
#197 = EDGE_LOOP ( 'NONE', ( #210, #7, #53, #27 ) ) ;
#198 = DIRECTION ( 'NONE',  ( 0.000000000000000000, 0.000000000000000000, -1.000000000000000000 ) ) ;
#199 = CARTESIAN_POINT ( 'NONE',  ( 23.50000000000000000, 0.000000000000000000, 0.000000000000000000 ) ) ;
#200 = FACE_OUTER_BOUND ( 'NONE', #40, .T. ) ;
#201 = AXIS2_PLACEMENT_3D ( 'NONE', #101, #138, #64 ) ;
#202 = LENGTH_MEASURE_WITH_UNIT ( LENGTH_MEASURE( 0.02539999999999999897 ), #188 );
#203 = SURFACE_SIDE_STYLE ('',( #222 ) ) ;
#204 = ADVANCED_FACE ( 'NONE', ( #220 ), #99, .F. ) ;
#205 = DIRECTION ( 'NONE',  ( 1.000000000000000000, 0.000000000000000000, 0.000000000000000000 ) ) ;
#206 = SHAPE_DEFINITION_REPRESENTATION ( #207, #191 ) ;
#207 = PRODUCT_DEFINITION_SHAPE ( 'NONE', 'NONE',  #34 ) ;
#208 = APPLICATION_PROTOCOL_DEFINITION ( 'draft international standard', 'automotive_design', 1998, #169 ) ;
#209 = COLOUR_RGB ( '',0.2980392156862745057, 0.2980392156862745057, 0.2980392156862745057 ) ;
#210 = ORIENTED_EDGE ( 'NONE', *, *, #174, .F. ) ;
#211 = DIRECTION ( 'NONE',  ( 0.000000000000000000, 0.000000000000000000, -1.000000000000000000 ) ) ;
#212 = CARTESIAN_POINT ( 'NONE',  ( 23.50000000000000000, 0.000000000000000000, 0.000000000000000000 ) ) ;
#213 = ORIENTED_EDGE ( 'NONE', *, *, #71, .T. ) ;
#214 = PRODUCT_RELATED_PRODUCT_CATEGORY ( 'part', '', ( #187 ) ) ;
#215 = STYLED_ITEM ( 'NONE', ( #175 ), #191 ) ;
#216 = ORIENTED_EDGE ( 'NONE', *, *, #100, .T. ) ;
#217 = CARTESIAN_POINT ( 'NONE',  ( 23.50000000000000000, 6.117110761741029900E-17, -0.4994999999999999996 ) ) ;
#218 = LINE ( 'NONE', #116, #193 ) ;
#219 = MECHANICAL_DESIGN_GEOMETRIC_PRESENTATION_REPRESENTATION (  '', ( #62 ), #81 ) ;
#220 = FACE_OUTER_BOUND ( 'NONE', #178, .T. ) ;
#221 = FACE_OUTER_BOUND ( 'NONE', #197, .T. ) ;
#222 = SURFACE_STYLE_FILL_AREA ( #50 ) ;
#223 = EDGE_CURVE ( 'NONE', #55, #75, #107, .T. ) ;
ENDSEC;
END-ISO-10303-21;
