ISO-10303-21;
HEADER;
FILE_DESCRIPTION (( 'STEP AP214' ),
    '1' );
FILE_NAME ('WCP-1269 Rev1.step',
    '2023-11-30T02:21:23',
    ( '' ),
    ( '' ),
    'SwSTEP 2.0',
    'SolidWorks 2022',
    '' );
FILE_SCHEMA (( 'AUTOMOTIVE_DESIGN' ));
ENDSEC;

DATA;
#1 = VECTOR ( 'NONE', #62, 39.37007874015748143 ) ;
#2 = DIRECTION ( 'NONE',  ( 1.000000000000000000, 0.000000000000000000, 0.000000000000000000 ) ) ;
#3 =( NAMED_UNIT ( * ) PLANE_ANGLE_UNIT ( ) SI_UNIT ( $, .RADIAN. ) );
#4 = DIRECTION ( 'NONE',  ( 0.000000000000000000, 0.000000000000000000, -1.000000000000000000 ) ) ;
#5 =( LENGTH_UNIT ( ) NAMED_UNIT ( * ) SI_UNIT ( $, .METRE. ) );
#6 = ADVANCED_FACE ( 'NONE', ( #178 ), #144, .T. ) ;
#7 = CLOSED_SHELL ( 'NONE', ( #122, #84, #125, #188, #6, #147 ) ) ;
#8 = EDGE_CURVE ( 'NONE', #128, #161, #206, .T. ) ;
#9 = VERTEX_POINT ( 'NONE', #111 ) ;
#10 = ORIENTED_EDGE ( 'NONE', *, *, #17, .T. ) ;
#11 = AXIS2_PLACEMENT_3D ( 'NONE', #108, #41, #176 ) ;
#12 = EDGE_CURVE ( 'NONE', #75, #106, #93, .T. ) ;
#13 = CARTESIAN_POINT ( 'NONE',  ( 23.50000000000000000, 0.000000000000000000, 0.000000000000000000 ) ) ;
#14 = DIRECTION ( 'NONE',  ( -1.000000000000000000, -0.000000000000000000, -0.000000000000000000 ) ) ;
#15 = AXIS2_PLACEMENT_3D ( 'NONE', #133, #16, #219 ) ;
#16 = DIRECTION ( 'NONE',  ( 1.000000000000000000, 0.000000000000000000, 0.000000000000000000 ) ) ;
#17 = EDGE_CURVE ( 'NONE', #61, #60, #210, .T. ) ;
#18 = DIRECTION ( 'NONE',  ( 0.000000000000000000, 0.000000000000000000, 1.000000000000000000 ) ) ;
#19 = CARTESIAN_POINT ( 'NONE',  ( -23.50000000000000000, 0.000000000000000000, 0.000000000000000000 ) ) ;
#20 = LENGTH_MEASURE_WITH_UNIT ( LENGTH_MEASURE( 0.02539999999999999897 ), #156 );
#21 = EDGE_LOOP ( 'NONE', ( #213, #91, #24, #56 ) ) ;
#22 = CIRCLE ( 'NONE', #74, 0.3125000000000000000 ) ;
#23 = DIRECTION ( 'NONE',  ( 1.000000000000000000, 0.000000000000000000, 0.000000000000000000 ) ) ;
#24 = ORIENTED_EDGE ( 'NONE', *, *, #140, .F. ) ;
#25 = APPLICATION_CONTEXT ( 'automotive_design' ) ;
#26 = EDGE_LOOP ( 'NONE', ( #162, #73, #10, #89 ) ) ;
#27 = AXIS2_PLACEMENT_3D ( 'NONE', #216, #55, #87 ) ;
#28 = CARTESIAN_POINT ( 'NONE',  ( -23.50000000000000000, 0.000000000000000000, 0.000000000000000000 ) ) ;
#29 = DIRECTION ( 'NONE',  ( 0.000000000000000000, 0.000000000000000000, 1.000000000000000000 ) ) ;
#30 = CARTESIAN_POINT ( 'NONE',  ( 23.50000000000000000, 0.000000000000000000, 0.000000000000000000 ) ) ;
#31 = CIRCLE ( 'NONE', #220, 0.3125000000000000000 ) ;
#32 = DIRECTION ( 'NONE',  ( 0.000000000000000000, 0.000000000000000000, -1.000000000000000000 ) ) ;
#33 = CARTESIAN_POINT ( 'NONE',  ( 23.50000000000000000, 0.000000000000000000, 0.000000000000000000 ) ) ;
#34 = SURFACE_STYLE_FILL_AREA ( #184 ) ;
#35 = VECTOR ( 'NONE', #112, 39.37007874015748143 ) ;
#36 = EDGE_CURVE ( 'NONE', #60, #106, #47, .T. ) ;
#37 = UNCERTAINTY_MEASURE_WITH_UNIT (LENGTH_MEASURE( 1.000000000000000082E-05 ), #189, 'distance_accuracy_value', 'NONE');
#38 = EDGE_LOOP ( 'NONE', ( #58, #148 ) ) ;
#39 = ORIENTED_EDGE ( 'NONE', *, *, #12, .T. ) ;
#40 = AXIS2_PLACEMENT_3D ( 'NONE', #33, #14, #29 ) ;
#41 = DIRECTION ( 'NONE',  ( -1.000000000000000000, -0.000000000000000000, -0.000000000000000000 ) ) ;
#42 = ORIENTED_EDGE ( 'NONE', *, *, #8, .F. ) ;
#43 = AXIS2_PLACEMENT_3D ( 'NONE', #222, #64, #95 ) ;
#44 = CARTESIAN_POINT ( 'NONE',  ( 23.50000000000000000, 0.000000000000000000, 0.000000000000000000 ) ) ;
#45 = DIRECTION ( 'NONE',  ( 1.000000000000000000, 0.000000000000000000, 0.000000000000000000 ) ) ;
#46 = CYLINDRICAL_SURFACE ( 'NONE', #214, 0.3125000000000000000 ) ;
#47 = CIRCLE ( 'NONE', #43, 0.3744999999999999996 ) ;
#48 = DIRECTION ( 'NONE',  ( 0.000000000000000000, 0.000000000000000000, 1.000000000000000000 ) ) ;
#49 = PLANE ( 'NONE',  #199 ) ;
#50 = SURFACE_SIDE_STYLE ('',( #34 ) ) ;
#51 =( GEOMETRIC_REPRESENTATION_CONTEXT ( 3 ) GLOBAL_UNCERTAINTY_ASSIGNED_CONTEXT ( ( #186 ) ) GLOBAL_UNIT_ASSIGNED_CONTEXT ( ( #191, #105, #54 ) ) REPRESENTATION_CONTEXT ( 'NONE', 'WORKASPACE' ) );
#52 = LENGTH_MEASURE_WITH_UNIT ( LENGTH_MEASURE( 0.02539999999999999897 ), #137 );
#53 = EDGE_CURVE ( 'NONE', #61, #75, #107, .T. ) ;
#54 =( NAMED_UNIT ( * ) SI_UNIT ( $, .STERADIAN. ) SOLID_ANGLE_UNIT ( ) );
#55 = DIRECTION ( 'NONE',  ( 0.000000000000000000, 0.000000000000000000, 1.000000000000000000 ) ) ;
#56 = ORIENTED_EDGE ( 'NONE', *, *, #142, .F. ) ;
#57 = PRODUCT_DEFINITION ( 'UNKNOWN', '', #83, #211 ) ;
#58 = ORIENTED_EDGE ( 'NONE', *, *, #81, .F. ) ;
#59 = ORIENTED_EDGE ( 'NONE', *, *, #218, .T. ) ;
#60 = VERTEX_POINT ( 'NONE', #154 ) ;
#61 = VERTEX_POINT ( 'NONE', #96 ) ;
#62 = DIRECTION ( 'NONE',  ( -1.000000000000000000, -0.000000000000000000, -0.000000000000000000 ) ) ;
#63 = CARTESIAN_POINT ( 'NONE',  ( 23.50000000000000000, 0.000000000000000000, 0.3125000000000000000 ) ) ;
#64 = DIRECTION ( 'NONE',  ( 1.000000000000000000, 0.000000000000000000, 0.000000000000000000 ) ) ;
#65 = DIRECTION ( 'NONE',  ( -1.000000000000000000, -0.000000000000000000, -0.000000000000000000 ) ) ;
#66 =( GEOMETRIC_REPRESENTATION_CONTEXT ( 3 ) GLOBAL_UNCERTAINTY_ASSIGNED_CONTEXT ( ( #37 ) ) GLOBAL_UNIT_ASSIGNED_CONTEXT ( ( #189, #3, #190 ) ) REPRESENTATION_CONTEXT ( 'NONE', 'WORKASPACE' ) );
#67 = LINE ( 'NONE', #63, #1 ) ;
#68 = SURFACE_SIDE_STYLE ('',( #141 ) ) ;
#69 = CIRCLE ( 'NONE', #167, 0.3744999999999999996 ) ;
#70 = COLOUR_RGB ( '',0.2980392156862745057, 0.2980392156862745057, 0.2980392156862745057 ) ;
#71 = CARTESIAN_POINT ( 'NONE',  ( 23.50000000000000000, 4.586302262806837466E-17, -0.3744999999999999996 ) ) ;
#72 = VERTEX_POINT ( 'NONE', #180 ) ;
#73 = ORIENTED_EDGE ( 'NONE', *, *, #53, .F. ) ;
#74 = AXIS2_PLACEMENT_3D ( 'NONE', #19, #82, #79 ) ;
#75 = VERTEX_POINT ( 'NONE', #132 ) ;
#76 = DIMENSIONAL_EXPONENTS ( 1.000000000000000000, 0.000000000000000000, 0.000000000000000000, 0.000000000000000000, 0.000000000000000000, 0.000000000000000000, 0.000000000000000000 ) ;
#77 = DIRECTION ( 'NONE',  ( 0.000000000000000000, 0.000000000000000000, -1.000000000000000000 ) ) ;
#78 = FACE_OUTER_BOUND ( 'NONE', #196, .T. ) ;
#79 = DIRECTION ( 'NONE',  ( 0.000000000000000000, 0.000000000000000000, -1.000000000000000000 ) ) ;
#80 = DIRECTION ( 'NONE',  ( 1.000000000000000000, 0.000000000000000000, 0.000000000000000000 ) ) ;
#81 = EDGE_CURVE ( 'NONE', #9, #72, #171, .T. ) ;
#82 = DIRECTION ( 'NONE',  ( 1.000000000000000000, 0.000000000000000000, 0.000000000000000000 ) ) ;
#83 = PRODUCT_DEFINITION_FORMATION_WITH_SPECIFIED_SOURCE ( 'ANY', '', #187, .NOT_KNOWN. ) ;
#84 = ADVANCED_FACE ( 'NONE', ( #168 ), #117, .T. ) ;
#85 = AXIS2_PLACEMENT_3D ( 'NONE', #28, #23, #90 ) ;
#86 = ADVANCED_BREP_SHAPE_REPRESENTATION ( 'WCP-1269 Rev1', ( #195, #27 ), #192 ) ;
#87 = DIRECTION ( 'NONE',  ( 1.000000000000000000, 0.000000000000000000, 0.000000000000000000 ) ) ;
#88 = CIRCLE ( 'NONE', #134, 0.3744999999999999996 ) ;
#89 = ORIENTED_EDGE ( 'NONE', *, *, #36, .T. ) ;
#90 = DIRECTION ( 'NONE',  ( 0.000000000000000000, 0.000000000000000000, -1.000000000000000000 ) ) ;
#91 = ORIENTED_EDGE ( 'NONE', *, *, #155, .T. ) ;
#92 = ORIENTED_EDGE ( 'NONE', *, *, #53, .T. ) ;
#93 = LINE ( 'NONE', #71, #127 ) ;
#94 = DIRECTION ( 'NONE',  ( 0.000000000000000000, 0.000000000000000000, -1.000000000000000000 ) ) ;
#95 = DIRECTION ( 'NONE',  ( 0.000000000000000000, 0.000000000000000000, -1.000000000000000000 ) ) ;
#96 = CARTESIAN_POINT ( 'NONE',  ( 23.50000000000000000, 0.000000000000000000, 0.3744999999999999996 ) ) ;
#97 = EDGE_CURVE ( 'NONE', #72, #9, #31, .T. ) ;
#98 = PLANE ( 'NONE',  #15 ) ;
#99 = CARTESIAN_POINT ( 'NONE',  ( 23.50000000000000000, 0.000000000000000000, 0.3744999999999999996 ) ) ;
#100 = AXIS2_PLACEMENT_3D ( 'NONE', #164, #223, #77 ) ;
#101 =( NAMED_UNIT ( * ) SI_UNIT ( $, .STERADIAN. ) SOLID_ANGLE_UNIT ( ) );
#102 = SURFACE_STYLE_USAGE ( .BOTH. , #50 ) ;
#103 = DIRECTION ( 'NONE',  ( 1.000000000000000000, 0.000000000000000000, 0.000000000000000000 ) ) ;
#104 = MECHANICAL_DESIGN_GEOMETRIC_PRESENTATION_REPRESENTATION (  '', ( #165 ), #66 ) ;
#105 =( NAMED_UNIT ( * ) PLANE_ANGLE_UNIT ( ) SI_UNIT ( $, .RADIAN. ) );
#106 = VERTEX_POINT ( 'NONE', #149 ) ;
#107 = CIRCLE ( 'NONE', #100, 0.3744999999999999996 ) ;
#108 = CARTESIAN_POINT ( 'NONE',  ( 23.50000000000000000, 0.000000000000000000, 0.000000000000000000 ) ) ;
#109 = ORIENTED_EDGE ( 'NONE', *, *, #8, .T. ) ;
#110 = PRODUCT_CONTEXT ( 'NONE', #25, 'mechanical' ) ;
#111 = CARTESIAN_POINT ( 'NONE',  ( 23.50000000000000000, 0.000000000000000000, 0.3125000000000000000 ) ) ;
#112 = DIRECTION ( 'NONE',  ( -1.000000000000000000, -0.000000000000000000, -0.000000000000000000 ) ) ;
#113 = APPLICATION_CONTEXT ( 'automotive_design' ) ;
#114 = DIMENSIONAL_EXPONENTS ( 1.000000000000000000, 0.000000000000000000, 0.000000000000000000, 0.000000000000000000, 0.000000000000000000, 0.000000000000000000, 0.000000000000000000 ) ;
#115 = FACE_BOUND ( 'NONE', #124, .T. ) ;
#116 = PRODUCT_RELATED_PRODUCT_CATEGORY ( 'part', '', ( #187 ) ) ;
#117 = CYLINDRICAL_SURFACE ( 'NONE', #40, 0.3744999999999999996 ) ;
#118 = CARTESIAN_POINT ( 'NONE',  ( -23.50000000000000000, 3.827021247335478926E-17, -0.3125000000000000000 ) ) ;
#119 = CARTESIAN_POINT ( 'NONE',  ( -23.50000000000000000, 0.000000000000000000, 0.000000000000000000 ) ) ;
#120 = STYLED_ITEM ( 'NONE', ( #173 ), #195 ) ;
#121 = FILL_AREA_STYLE ('',( #172 ) ) ;
#122 = ADVANCED_FACE ( 'NONE', ( #202 ), #166, .F. ) ;
#123 = MECHANICAL_DESIGN_GEOMETRIC_PRESENTATION_REPRESENTATION (  '', ( #120 ), #51 ) ;
#124 = EDGE_LOOP ( 'NONE', ( #126, #109 ) ) ;
#125 = ADVANCED_FACE ( 'NONE', ( #78, #221 ), #98, .T. ) ;
#126 = ORIENTED_EDGE ( 'NONE', *, *, #140, .T. ) ;
#127 = VECTOR ( 'NONE', #143, 39.37007874015748143 ) ;
#128 = VERTEX_POINT ( 'NONE', #118 ) ;
#129 = DIMENSIONAL_EXPONENTS ( 1.000000000000000000, 0.000000000000000000, 0.000000000000000000, 0.000000000000000000, 0.000000000000000000, 0.000000000000000000, 0.000000000000000000 ) ;
#130 = CARTESIAN_POINT ( 'NONE',  ( 23.50000000000000000, 0.000000000000000000, 0.000000000000000000 ) ) ;
#131 = FACE_OUTER_BOUND ( 'NONE', #174, .T. ) ;
#132 = CARTESIAN_POINT ( 'NONE',  ( 23.50000000000000000, 4.586302262806837466E-17, -0.3744999999999999996 ) ) ;
#133 = CARTESIAN_POINT ( 'NONE',  ( 23.50000000000000000, 0.000000000000000000, 0.000000000000000000 ) ) ;
#134 = AXIS2_PLACEMENT_3D ( 'NONE', #204, #45, #169 ) ;
#135 = LINE ( 'NONE', #182, #151 ) ;
#136 = EDGE_CURVE ( 'NONE', #106, #60, #88, .T. ) ;
#137 =( LENGTH_UNIT ( ) NAMED_UNIT ( * ) SI_UNIT ( $, .METRE. ) );
#138 = COLOUR_RGB ( '',0.2980392156862745057, 0.2980392156862745057, 0.2980392156862745057 ) ;
#139 =( CONVERSION_BASED_UNIT ( 'INCH', #207 ) LENGTH_UNIT ( ) NAMED_UNIT ( #76 ) );
#140 = EDGE_CURVE ( 'NONE', #161, #128, #22, .T. ) ;
#141 = SURFACE_STYLE_FILL_AREA ( #121 ) ;
#142 = EDGE_CURVE ( 'NONE', #9, #161, #67, .T. ) ;
#143 = DIRECTION ( 'NONE',  ( -1.000000000000000000, -0.000000000000000000, -0.000000000000000000 ) ) ;
#144 = CYLINDRICAL_SURFACE ( 'NONE', #11, 0.3744999999999999996 ) ;
#145 = ORIENTED_EDGE ( 'NONE', *, *, #142, .T. ) ;
#146 = EDGE_LOOP ( 'NONE', ( #177, #39, #198, #212 ) ) ;
#147 = ADVANCED_FACE ( 'NONE', ( #200 ), #46, .F. ) ;
#148 = ORIENTED_EDGE ( 'NONE', *, *, #97, .F. ) ;
#149 = CARTESIAN_POINT ( 'NONE',  ( -23.50000000000000000, 4.586302262806837466E-17, -0.3744999999999999996 ) ) ;
#150 = DIRECTION ( 'NONE',  ( -1.000000000000000000, -0.000000000000000000, -0.000000000000000000 ) ) ;
#151 = VECTOR ( 'NONE', #205, 39.37007874015748143 ) ;
#152 = FILL_AREA_STYLE_COLOUR ( '', #138 ) ;
#153 = CARTESIAN_POINT ( 'NONE',  ( 23.50000000000000000, 0.000000000000000000, 0.000000000000000000 ) ) ;
#154 = CARTESIAN_POINT ( 'NONE',  ( -23.50000000000000000, 0.000000000000000000, 0.3744999999999999996 ) ) ;
#155 = EDGE_CURVE ( 'NONE', #72, #128, #135, .T. ) ;
#156 =( LENGTH_UNIT ( ) NAMED_UNIT ( * ) SI_UNIT ( $, .METRE. ) );
#157 = APPLICATION_PROTOCOL_DEFINITION ( 'draft international standard', 'automotive_design', 1998, #25 ) ;
#158 = PRODUCT_DEFINITION_SHAPE ( 'NONE', 'NONE',  #57 ) ;
#159 = SHAPE_DEFINITION_REPRESENTATION ( #158, #86 ) ;
#160 = AXIS2_PLACEMENT_3D ( 'NONE', #130, #80, #183 ) ;
#161 = VERTEX_POINT ( 'NONE', #201 ) ;
#162 = ORIENTED_EDGE ( 'NONE', *, *, #12, .F. ) ;
#163 = ORIENTED_EDGE ( 'NONE', *, *, #97, .T. ) ;
#164 = CARTESIAN_POINT ( 'NONE',  ( 23.50000000000000000, 0.000000000000000000, 0.000000000000000000 ) ) ;
#165 = STYLED_ITEM ( 'NONE', ( #170 ), #86 ) ;
#166 = CYLINDRICAL_SURFACE ( 'NONE', #185, 0.3125000000000000000 ) ;
#167 = AXIS2_PLACEMENT_3D ( 'NONE', #30, #103, #4 ) ;
#168 = FACE_OUTER_BOUND ( 'NONE', #146, .T. ) ;
#169 = DIRECTION ( 'NONE',  ( 0.000000000000000000, 0.000000000000000000, -1.000000000000000000 ) ) ;
#170 = PRESENTATION_STYLE_ASSIGNMENT (( #208 ) ) ;
#171 = CIRCLE ( 'NONE', #160, 0.3125000000000000000 ) ;
#172 = FILL_AREA_STYLE_COLOUR ( '', #70 ) ;
#173 = PRESENTATION_STYLE_ASSIGNMENT (( #102 ) ) ;
#174 = EDGE_LOOP ( 'NONE', ( #194, #217 ) ) ;
#175 = APPLICATION_PROTOCOL_DEFINITION ( 'draft international standard', 'automotive_design', 1998, #113 ) ;
#176 = DIRECTION ( 'NONE',  ( 0.000000000000000000, 0.000000000000000000, 1.000000000000000000 ) ) ;
#177 = ORIENTED_EDGE ( 'NONE', *, *, #218, .F. ) ;
#178 = FACE_OUTER_BOUND ( 'NONE', #26, .T. ) ;
#179 = UNCERTAINTY_MEASURE_WITH_UNIT (LENGTH_MEASURE( 1.000000000000000082E-05 ), #139, 'distance_accuracy_value', 'NONE');
#180 = CARTESIAN_POINT ( 'NONE',  ( 23.50000000000000000, 3.827021247335478926E-17, -0.3125000000000000000 ) ) ;
#181 = DIRECTION ( 'NONE',  ( 1.000000000000000000, 0.000000000000000000, 0.000000000000000000 ) ) ;
#182 = CARTESIAN_POINT ( 'NONE',  ( 23.50000000000000000, 3.827021247335478926E-17, -0.3125000000000000000 ) ) ;
#183 = DIRECTION ( 'NONE',  ( 0.000000000000000000, 0.000000000000000000, -1.000000000000000000 ) ) ;
#184 = FILL_AREA_STYLE ('',( #152 ) ) ;
#185 = AXIS2_PLACEMENT_3D ( 'NONE', #13, #65, #48 ) ;
#186 = UNCERTAINTY_MEASURE_WITH_UNIT (LENGTH_MEASURE( 1.000000000000000082E-05 ), #191, 'distance_accuracy_value', 'NONE');
#187 = PRODUCT ( 'WCP-1269 Rev1', 'WCP-1269 Rev1', '', ( #110 ) ) ;
#188 = ADVANCED_FACE ( 'NONE', ( #131, #115 ), #49, .F. ) ;
#189 =( CONVERSION_BASED_UNIT ( 'INCH', #52 ) LENGTH_UNIT ( ) NAMED_UNIT ( #129 ) );
#190 =( NAMED_UNIT ( * ) SI_UNIT ( $, .STERADIAN. ) SOLID_ANGLE_UNIT ( ) );
#191 =( CONVERSION_BASED_UNIT ( 'INCH', #20 ) LENGTH_UNIT ( ) NAMED_UNIT ( #114 ) );
#192 =( GEOMETRIC_REPRESENTATION_CONTEXT ( 3 ) GLOBAL_UNCERTAINTY_ASSIGNED_CONTEXT ( ( #179 ) ) GLOBAL_UNIT_ASSIGNED_CONTEXT ( ( #139, #193, #101 ) ) REPRESENTATION_CONTEXT ( 'NONE', 'WORKASPACE' ) );
#193 =( NAMED_UNIT ( * ) PLANE_ANGLE_UNIT ( ) SI_UNIT ( $, .RADIAN. ) );
#194 = ORIENTED_EDGE ( 'NONE', *, *, #36, .F. ) ;
#195 = MANIFOLD_SOLID_BREP ( 'Extrude-Thin2', #7 ) ;
#196 = EDGE_LOOP ( 'NONE', ( #92, #59 ) ) ;
#197 = ORIENTED_EDGE ( 'NONE', *, *, #155, .F. ) ;
#198 = ORIENTED_EDGE ( 'NONE', *, *, #136, .T. ) ;
#199 = AXIS2_PLACEMENT_3D ( 'NONE', #119, #181, #32 ) ;
#200 = FACE_OUTER_BOUND ( 'NONE', #215, .T. ) ;
#201 = CARTESIAN_POINT ( 'NONE',  ( -23.50000000000000000, 0.000000000000000000, 0.3125000000000000000 ) ) ;
#202 = FACE_OUTER_BOUND ( 'NONE', #21, .T. ) ;
#203 = PRESENTATION_LAYER_ASSIGNMENT (  '', '', ( #165 ) ) ;
#204 = CARTESIAN_POINT ( 'NONE',  ( -23.50000000000000000, 0.000000000000000000, 0.000000000000000000 ) ) ;
#205 = DIRECTION ( 'NONE',  ( -1.000000000000000000, -0.000000000000000000, -0.000000000000000000 ) ) ;
#206 = CIRCLE ( 'NONE', #85, 0.3125000000000000000 ) ;
#207 = LENGTH_MEASURE_WITH_UNIT ( LENGTH_MEASURE( 0.02539999999999999897 ), #5 );
#208 = SURFACE_STYLE_USAGE ( .BOTH. , #68 ) ;
#209 = PRESENTATION_LAYER_ASSIGNMENT (  '', '', ( #120 ) ) ;
#210 = LINE ( 'NONE', #99, #35 ) ;
#211 = PRODUCT_DEFINITION_CONTEXT ( 'detailed design', #113, 'design' ) ;
#212 = ORIENTED_EDGE ( 'NONE', *, *, #17, .F. ) ;
#213 = ORIENTED_EDGE ( 'NONE', *, *, #81, .T. ) ;
#214 = AXIS2_PLACEMENT_3D ( 'NONE', #44, #150, #18 ) ;
#215 = EDGE_LOOP ( 'NONE', ( #197, #163, #145, #42 ) ) ;
#216 = CARTESIAN_POINT ( 'NONE',  ( 0.000000000000000000, 0.000000000000000000, 0.000000000000000000 ) ) ;
#217 = ORIENTED_EDGE ( 'NONE', *, *, #136, .F. ) ;
#218 = EDGE_CURVE ( 'NONE', #75, #61, #69, .T. ) ;
#219 = DIRECTION ( 'NONE',  ( 0.000000000000000000, 0.000000000000000000, -1.000000000000000000 ) ) ;
#220 = AXIS2_PLACEMENT_3D ( 'NONE', #153, #2, #94 ) ;
#221 = FACE_BOUND ( 'NONE', #38, .T. ) ;
#222 = CARTESIAN_POINT ( 'NONE',  ( -23.50000000000000000, 0.000000000000000000, 0.000000000000000000 ) ) ;
#223 = DIRECTION ( 'NONE',  ( 1.000000000000000000, 0.000000000000000000, 0.000000000000000000 ) ) ;
ENDSEC;
END-ISO-10303-21;
