ISO-10303-21;
HEADER;
FILE_DESCRIPTION (( 'STEP AP214' ),
    '1' );
FILE_NAME ('WCP-1266 Rev1.step',
    '2024-01-04T23:48:00',
    ( '' ),
    ( '' ),
    'SwSTEP 2.0',
    'SolidWorks 2022',
    '' );
FILE_SCHEMA (( 'AUTOMOTIVE_DESIGN' ));
ENDSEC;

DATA;
#1 = EDGE_CURVE ( 'NONE', #177, #149, #187, .T. ) ;
#2 = CARTESIAN_POINT ( 'NONE',  ( -23.50000000000000000, 0.000000000000000000, 0.000000000000000000 ) ) ;
#3 = DIRECTION ( 'NONE',  ( -1.000000000000000000, -0.000000000000000000, -0.000000000000000000 ) ) ;
#4 = CARTESIAN_POINT ( 'NONE',  ( 23.50000000000000000, 0.000000000000000000, 1.187500000000000000 ) ) ;
#5 = EDGE_CURVE ( 'NONE', #177, #198, #14, .T. ) ;
#6 = MECHANICAL_DESIGN_GEOMETRIC_PRESENTATION_REPRESENTATION (  '', ( #48 ), #123 ) ;
#7 = PRODUCT_CONTEXT ( 'NONE', #9, 'mechanical' ) ;
#8 = VERTEX_POINT ( 'NONE', #220 ) ;
#9 = APPLICATION_CONTEXT ( 'automotive_design' ) ;
#10 = CIRCLE ( 'NONE', #113, 1.187500000000000000 ) ;
#11 = DIRECTION ( 'NONE',  ( -1.000000000000000000, -0.000000000000000000, -0.000000000000000000 ) ) ;
#12 = DIRECTION ( 'NONE',  ( 1.000000000000000000, 0.000000000000000000, 0.000000000000000000 ) ) ;
#13 = CARTESIAN_POINT ( 'NONE',  ( 23.50000000000000000, 0.000000000000000000, 0.000000000000000000 ) ) ;
#14 = CIRCLE ( 'NONE', #155, 1.250000000000000000 ) ;
#15 = PRESENTATION_LAYER_ASSIGNMENT (  '', '', ( #93 ) ) ;
#16 =( NAMED_UNIT ( * ) PLANE_ANGLE_UNIT ( ) SI_UNIT ( $, .RADIAN. ) );
#17 = CARTESIAN_POINT ( 'NONE',  ( 23.50000000000000000, 1.454268073987482103E-16, -1.187500000000000000 ) ) ;
#18 = CYLINDRICAL_SURFACE ( 'NONE', #20, 1.187500000000000000 ) ;
#19 = ORIENTED_EDGE ( 'NONE', *, *, #83, .T. ) ;
#20 = AXIS2_PLACEMENT_3D ( 'NONE', #96, #52, #68 ) ;
#21 = EDGE_LOOP ( 'NONE', ( #19, #77 ) ) ;
#22 = ORIENTED_EDGE ( 'NONE', *, *, #137, .F. ) ;
#23 = DIRECTION ( 'NONE',  ( 0.000000000000000000, 0.000000000000000000, -1.000000000000000000 ) ) ;
#24 = PLANE ( 'NONE',  #146 ) ;
#25 = DIRECTION ( 'NONE',  ( -1.000000000000000000, -0.000000000000000000, -0.000000000000000000 ) ) ;
#26 = ADVANCED_FACE ( 'NONE', ( #171, #186 ), #24, .T. ) ;
#27 = CYLINDRICAL_SURFACE ( 'NONE', #174, 1.250000000000000000 ) ;
#28 = DIRECTION ( 'NONE',  ( 0.000000000000000000, 0.000000000000000000, -1.000000000000000000 ) ) ;
#29 = ADVANCED_BREP_SHAPE_REPRESENTATION ( 'WCP-1266 Rev1', ( #66, #173 ), #65 ) ;
#30 = DIRECTION ( 'NONE',  ( 0.000000000000000000, 0.000000000000000000, -1.000000000000000000 ) ) ;
#31 = AXIS2_PLACEMENT_3D ( 'NONE', #2, #135, #30 ) ;
#32 = CARTESIAN_POINT ( 'NONE',  ( 23.50000000000000000, 0.000000000000000000, 0.000000000000000000 ) ) ;
#33 = CYLINDRICAL_SURFACE ( 'NONE', #103, 1.250000000000000000 ) ;
#34 = PRODUCT_DEFINITION_CONTEXT ( 'detailed design', #56, 'design' ) ;
#35 = FACE_OUTER_BOUND ( 'NONE', #151, .T. ) ;
#36 = ORIENTED_EDGE ( 'NONE', *, *, #1, .F. ) ;
#37 = CIRCLE ( 'NONE', #31, 1.250000000000000000 ) ;
#38 = FILL_AREA_STYLE_COLOUR ( '', #201 ) ;
#39 = ADVANCED_FACE ( 'NONE', ( #49 ), #27, .T. ) ;
#40 = ORIENTED_EDGE ( 'NONE', *, *, #132, .F. ) ;
#41 = DIRECTION ( 'NONE',  ( 0.000000000000000000, 0.000000000000000000, 1.000000000000000000 ) ) ;
#42 = SURFACE_STYLE_FILL_AREA ( #90 ) ;
#43 = SURFACE_SIDE_STYLE ('',( #111 ) ) ;
#44 = CIRCLE ( 'NONE', #223, 1.187500000000000000 ) ;
#45 = CARTESIAN_POINT ( 'NONE',  ( -23.50000000000000000, 1.530808498934191571E-16, -1.250000000000000000 ) ) ;
#46 = APPLICATION_PROTOCOL_DEFINITION ( 'draft international standard', 'automotive_design', 1998, #56 ) ;
#47 = DIRECTION ( 'NONE',  ( 0.000000000000000000, 0.000000000000000000, 1.000000000000000000 ) ) ;
#48 = STYLED_ITEM ( 'NONE', ( #110 ), #66 ) ;
#49 = FACE_OUTER_BOUND ( 'NONE', #215, .T. ) ;
#50 = DIRECTION ( 'NONE',  ( -1.000000000000000000, -0.000000000000000000, -0.000000000000000000 ) ) ;
#51 = PRODUCT_RELATED_PRODUCT_CATEGORY ( 'part', '', ( #115 ) ) ;
#52 = DIRECTION ( 'NONE',  ( -1.000000000000000000, -0.000000000000000000, -0.000000000000000000 ) ) ;
#53 = DIRECTION ( 'NONE',  ( 0.000000000000000000, 0.000000000000000000, -1.000000000000000000 ) ) ;
#54 = CARTESIAN_POINT ( 'NONE',  ( -23.50000000000000000, 0.000000000000000000, 0.000000000000000000 ) ) ;
#55 = VERTEX_POINT ( 'NONE', #131 ) ;
#56 = APPLICATION_CONTEXT ( 'automotive_design' ) ;
#57 = VECTOR ( 'NONE', #50, 39.37007874015748143 ) ;
#58 = VERTEX_POINT ( 'NONE', #45 ) ;
#59 = CARTESIAN_POINT ( 'NONE',  ( 23.50000000000000000, 0.000000000000000000, 0.000000000000000000 ) ) ;
#60 = UNCERTAINTY_MEASURE_WITH_UNIT (LENGTH_MEASURE( 1.000000000000000082E-05 ), #206, 'distance_accuracy_value', 'NONE');
#61 = AXIS2_PLACEMENT_3D ( 'NONE', #158, #85, #159 ) ;
#62 =( LENGTH_UNIT ( ) NAMED_UNIT ( * ) SI_UNIT ( $, .METRE. ) );
#63 = SURFACE_SIDE_STYLE ('',( #42 ) ) ;
#64 = DIRECTION ( 'NONE',  ( 0.000000000000000000, 0.000000000000000000, 1.000000000000000000 ) ) ;
#65 =( GEOMETRIC_REPRESENTATION_CONTEXT ( 3 ) GLOBAL_UNCERTAINTY_ASSIGNED_CONTEXT ( ( #210 ) ) GLOBAL_UNIT_ASSIGNED_CONTEXT ( ( #191, #16, #122 ) ) REPRESENTATION_CONTEXT ( 'NONE', 'WORKASPACE' ) );
#66 = MANIFOLD_SOLID_BREP ( 'Extrude-Thin2', #193 ) ;
#67 =( LENGTH_UNIT ( ) NAMED_UNIT ( * ) SI_UNIT ( $, .METRE. ) );
#68 = DIRECTION ( 'NONE',  ( 0.000000000000000000, 0.000000000000000000, 1.000000000000000000 ) ) ;
#69 = ORIENTED_EDGE ( 'NONE', *, *, #208, .F. ) ;
#70 = MECHANICAL_DESIGN_GEOMETRIC_PRESENTATION_REPRESENTATION (  '', ( #93 ), #128 ) ;
#71 = LINE ( 'NONE', #4, #134 ) ;
#72 = COLOUR_RGB ( '',0.2980392156862745057, 0.2980392156862745057, 0.2980392156862745057 ) ;
#73 = VERTEX_POINT ( 'NONE', #170 ) ;
#74 = FILL_AREA_STYLE_COLOUR ( '', #72 ) ;
#75 = VECTOR ( 'NONE', #3, 39.37007874015748143 ) ;
#76 = PRODUCT_DEFINITION_FORMATION_WITH_SPECIFIED_SOURCE ( 'ANY', '', #115, .NOT_KNOWN. ) ;
#77 = ORIENTED_EDGE ( 'NONE', *, *, #78, .T. ) ;
#78 = EDGE_CURVE ( 'NONE', #73, #8, #157, .T. ) ;
#79 = CARTESIAN_POINT ( 'NONE',  ( -23.50000000000000000, 0.000000000000000000, 0.000000000000000000 ) ) ;
#80 = DIRECTION ( 'NONE',  ( 0.000000000000000000, 0.000000000000000000, 1.000000000000000000 ) ) ;
#81 = ADVANCED_FACE ( 'NONE', ( #35 ), #18, .F. ) ;
#82 = DIRECTION ( 'NONE',  ( 1.000000000000000000, 0.000000000000000000, 0.000000000000000000 ) ) ;
#83 = EDGE_CURVE ( 'NONE', #8, #73, #10, .T. ) ;
#84 = CYLINDRICAL_SURFACE ( 'NONE', #117, 1.187500000000000000 ) ;
#85 = DIRECTION ( 'NONE',  ( 1.000000000000000000, 0.000000000000000000, 0.000000000000000000 ) ) ;
#86 = CARTESIAN_POINT ( 'NONE',  ( 23.50000000000000000, 0.000000000000000000, 0.000000000000000000 ) ) ;
#87 = DIRECTION ( 'NONE',  ( 1.000000000000000000, 0.000000000000000000, 0.000000000000000000 ) ) ;
#88 = ORIENTED_EDGE ( 'NONE', *, *, #179, .F. ) ;
#89 = PRODUCT_DEFINITION ( 'UNKNOWN', '', #76, #34 ) ;
#90 = FILL_AREA_STYLE ('',( #74 ) ) ;
#91 =( NAMED_UNIT ( * ) SI_UNIT ( $, .STERADIAN. ) SOLID_ANGLE_UNIT ( ) );
#92 = ORIENTED_EDGE ( 'NONE', *, *, #168, .F. ) ;
#93 = STYLED_ITEM ( 'NONE', ( #105 ), #29 ) ;
#94 = EDGE_CURVE ( 'NONE', #55, #142, #44, .T. ) ;
#95 = DIRECTION ( 'NONE',  ( 0.000000000000000000, 0.000000000000000000, -1.000000000000000000 ) ) ;
#96 = CARTESIAN_POINT ( 'NONE',  ( 23.50000000000000000, 0.000000000000000000, 0.000000000000000000 ) ) ;
#97 = LENGTH_MEASURE_WITH_UNIT ( LENGTH_MEASURE( 0.02539999999999999897 ), #67 );
#98 = DIRECTION ( 'NONE',  ( -1.000000000000000000, -0.000000000000000000, -0.000000000000000000 ) ) ;
#99 = ORIENTED_EDGE ( 'NONE', *, *, #121, .T. ) ;
#100 = DIRECTION ( 'NONE',  ( 0.000000000000000000, 0.000000000000000000, -1.000000000000000000 ) ) ;
#101 = CARTESIAN_POINT ( 'NONE',  ( 23.50000000000000000, 0.000000000000000000, 0.000000000000000000 ) ) ;
#102 = EDGE_LOOP ( 'NONE', ( #22, #183, #112, #211 ) ) ;
#103 = AXIS2_PLACEMENT_3D ( 'NONE', #13, #156, #64 ) ;
#104 =( LENGTH_UNIT ( ) NAMED_UNIT ( * ) SI_UNIT ( $, .METRE. ) );
#105 = PRESENTATION_STYLE_ASSIGNMENT (( #109 ) ) ;
#106 = DIMENSIONAL_EXPONENTS ( 1.000000000000000000, 0.000000000000000000, 0.000000000000000000, 0.000000000000000000, 0.000000000000000000, 0.000000000000000000, 0.000000000000000000 ) ;
#107 =( NAMED_UNIT ( * ) PLANE_ANGLE_UNIT ( ) SI_UNIT ( $, .RADIAN. ) );
#108 = AXIS2_PLACEMENT_3D ( 'NONE', #195, #136, #118 ) ;
#109 = SURFACE_STYLE_USAGE ( .BOTH. , #43 ) ;
#110 = PRESENTATION_STYLE_ASSIGNMENT (( #153 ) ) ;
#111 = SURFACE_STYLE_FILL_AREA ( #164 ) ;
#112 = ORIENTED_EDGE ( 'NONE', *, *, #132, .T. ) ;
#113 = AXIS2_PLACEMENT_3D ( 'NONE', #54, #82, #100 ) ;
#114 = ORIENTED_EDGE ( 'NONE', *, *, #94, .F. ) ;
#115 = PRODUCT ( 'WCP-1266 Rev1', 'WCP-1266 Rev1', '', ( #7 ) ) ;
#116 = FACE_OUTER_BOUND ( 'NONE', #196, .T. ) ;
#117 = AXIS2_PLACEMENT_3D ( 'NONE', #32, #98, #80 ) ;
#118 = DIRECTION ( 'NONE',  ( 0.000000000000000000, 0.000000000000000000, -1.000000000000000000 ) ) ;
#119 = UNCERTAINTY_MEASURE_WITH_UNIT (LENGTH_MEASURE( 1.000000000000000082E-05 ), #184, 'distance_accuracy_value', 'NONE');
#120 = DIRECTION ( 'NONE',  ( 0.000000000000000000, 0.000000000000000000, -1.000000000000000000 ) ) ;
#121 = EDGE_CURVE ( 'NONE', #58, #149, #180, .T. ) ;
#122 =( NAMED_UNIT ( * ) SI_UNIT ( $, .STERADIAN. ) SOLID_ANGLE_UNIT ( ) );
#123 =( GEOMETRIC_REPRESENTATION_CONTEXT ( 3 ) GLOBAL_UNCERTAINTY_ASSIGNED_CONTEXT ( ( #60 ) ) GLOBAL_UNIT_ASSIGNED_CONTEXT ( ( #206, #107, #91 ) ) REPRESENTATION_CONTEXT ( 'NONE', 'WORKASPACE' ) );
#124 =( NAMED_UNIT ( * ) SI_UNIT ( $, .STERADIAN. ) SOLID_ANGLE_UNIT ( ) );
#125 = ORIENTED_EDGE ( 'NONE', *, *, #83, .F. ) ;
#126 = APPLICATION_PROTOCOL_DEFINITION ( 'draft international standard', 'automotive_design', 1998, #9 ) ;
#127 = EDGE_CURVE ( 'NONE', #198, #58, #212, .T. ) ;
#128 =( GEOMETRIC_REPRESENTATION_CONTEXT ( 3 ) GLOBAL_UNCERTAINTY_ASSIGNED_CONTEXT ( ( #119 ) ) GLOBAL_UNIT_ASSIGNED_CONTEXT ( ( #184, #129, #124 ) ) REPRESENTATION_CONTEXT ( 'NONE', 'WORKASPACE' ) );
#129 =( NAMED_UNIT ( * ) PLANE_ANGLE_UNIT ( ) SI_UNIT ( $, .RADIAN. ) );
#130 = CARTESIAN_POINT ( 'NONE',  ( 23.50000000000000000, 0.000000000000000000, 0.000000000000000000 ) ) ;
#131 = CARTESIAN_POINT ( 'NONE',  ( 23.50000000000000000, 0.000000000000000000, 1.187500000000000000 ) ) ;
#132 = EDGE_CURVE ( 'NONE', #55, #8, #71, .T. ) ;
#133 = CARTESIAN_POINT ( 'NONE',  ( 23.50000000000000000, 0.000000000000000000, 0.000000000000000000 ) ) ;
#134 = VECTOR ( 'NONE', #207, 39.37007874015748143 ) ;
#135 = DIRECTION ( 'NONE',  ( 1.000000000000000000, 0.000000000000000000, 0.000000000000000000 ) ) ;
#136 = DIRECTION ( 'NONE',  ( 1.000000000000000000, 0.000000000000000000, 0.000000000000000000 ) ) ;
#137 = EDGE_CURVE ( 'NONE', #142, #73, #172, .T. ) ;
#138 = CIRCLE ( 'NONE', #209, 1.250000000000000000 ) ;
#139 = CARTESIAN_POINT ( 'NONE',  ( 23.50000000000000000, 0.000000000000000000, 1.250000000000000000 ) ) ;
#140 = ADVANCED_FACE ( 'NONE', ( #197 ), #84, .F. ) ;
#141 = CARTESIAN_POINT ( 'NONE',  ( 23.50000000000000000, 1.530808498934191571E-16, -1.250000000000000000 ) ) ;
#142 = VERTEX_POINT ( 'NONE', #178 ) ;
#143 = DIMENSIONAL_EXPONENTS ( 1.000000000000000000, 0.000000000000000000, 0.000000000000000000, 0.000000000000000000, 0.000000000000000000, 0.000000000000000000, 0.000000000000000000 ) ;
#144 = FACE_BOUND ( 'NONE', #21, .T. ) ;
#145 = ORIENTED_EDGE ( 'NONE', *, *, #94, .T. ) ;
#146 = AXIS2_PLACEMENT_3D ( 'NONE', #130, #189, #204 ) ;
#147 = LENGTH_MEASURE_WITH_UNIT ( LENGTH_MEASURE( 0.02539999999999999897 ), #104 );
#148 = ADVANCED_FACE ( 'NONE', ( #199, #144 ), #222, .F. ) ;
#149 = VERTEX_POINT ( 'NONE', #176 ) ;
#150 = ORIENTED_EDGE ( 'NONE', *, *, #5, .F. ) ;
#151 = EDGE_LOOP ( 'NONE', ( #145, #167, #125, #40 ) ) ;
#152 = ORIENTED_EDGE ( 'NONE', *, *, #1, .T. ) ;
#153 = SURFACE_STYLE_USAGE ( .BOTH. , #63 ) ;
#154 = DIRECTION ( 'NONE',  ( 1.000000000000000000, 0.000000000000000000, 0.000000000000000000 ) ) ;
#155 = AXIS2_PLACEMENT_3D ( 'NONE', #133, #12, #23 ) ;
#156 = DIRECTION ( 'NONE',  ( -1.000000000000000000, -0.000000000000000000, -0.000000000000000000 ) ) ;
#157 = CIRCLE ( 'NONE', #219, 1.187500000000000000 ) ;
#158 = CARTESIAN_POINT ( 'NONE',  ( -23.50000000000000000, 0.000000000000000000, 0.000000000000000000 ) ) ;
#159 = DIRECTION ( 'NONE',  ( 0.000000000000000000, 0.000000000000000000, -1.000000000000000000 ) ) ;
#160 = EDGE_LOOP ( 'NONE', ( #69, #205 ) ) ;
#161 = DIRECTION ( 'NONE',  ( 1.000000000000000000, 0.000000000000000000, 0.000000000000000000 ) ) ;
#162 = CIRCLE ( 'NONE', #190, 1.187500000000000000 ) ;
#163 = SHAPE_DEFINITION_REPRESENTATION ( #192, #29 ) ;
#164 = FILL_AREA_STYLE ('',( #38 ) ) ;
#165 = ORIENTED_EDGE ( 'NONE', *, *, #208, .T. ) ;
#166 = ORIENTED_EDGE ( 'NONE', *, *, #179, .T. ) ;
#167 = ORIENTED_EDGE ( 'NONE', *, *, #137, .T. ) ;
#168 = EDGE_CURVE ( 'NONE', #142, #55, #162, .T. ) ;
#169 = CARTESIAN_POINT ( 'NONE',  ( 23.50000000000000000, 0.000000000000000000, 1.250000000000000000 ) ) ;
#170 = CARTESIAN_POINT ( 'NONE',  ( -23.50000000000000000, 1.454268073987482103E-16, -1.187500000000000000 ) ) ;
#171 = FACE_OUTER_BOUND ( 'NONE', #181, .T. ) ;
#172 = LINE ( 'NONE', #17, #57 ) ;
#173 = AXIS2_PLACEMENT_3D ( 'NONE', #216, #41, #87 ) ;
#174 = AXIS2_PLACEMENT_3D ( 'NONE', #59, #25, #47 ) ;
#175 = CARTESIAN_POINT ( 'NONE',  ( 23.50000000000000000, 1.530808498934191571E-16, -1.250000000000000000 ) ) ;
#176 = CARTESIAN_POINT ( 'NONE',  ( -23.50000000000000000, 0.000000000000000000, 1.250000000000000000 ) ) ;
#177 = VERTEX_POINT ( 'NONE', #139 ) ;
#178 = CARTESIAN_POINT ( 'NONE',  ( 23.50000000000000000, 1.454268073987482103E-16, -1.187500000000000000 ) ) ;
#179 = EDGE_CURVE ( 'NONE', #198, #177, #138, .T. ) ;
#180 = CIRCLE ( 'NONE', #108, 1.250000000000000000 ) ;
#181 = EDGE_LOOP ( 'NONE', ( #221, #166 ) ) ;
#182 = ORIENTED_EDGE ( 'NONE', *, *, #127, .T. ) ;
#183 = ORIENTED_EDGE ( 'NONE', *, *, #168, .T. ) ;
#184 =( CONVERSION_BASED_UNIT ( 'INCH', #147 ) LENGTH_UNIT ( ) NAMED_UNIT ( #143 ) );
#185 = VECTOR ( 'NONE', #11, 39.37007874015748143 ) ;
#186 = FACE_BOUND ( 'NONE', #202, .T. ) ;
#187 = LINE ( 'NONE', #169, #185 ) ;
#188 = ADVANCED_FACE ( 'NONE', ( #116 ), #33, .T. ) ;
#189 = DIRECTION ( 'NONE',  ( 1.000000000000000000, 0.000000000000000000, 0.000000000000000000 ) ) ;
#190 = AXIS2_PLACEMENT_3D ( 'NONE', #86, #214, #120 ) ;
#191 =( CONVERSION_BASED_UNIT ( 'INCH', #97 ) LENGTH_UNIT ( ) NAMED_UNIT ( #203 ) );
#192 = PRODUCT_DEFINITION_SHAPE ( 'NONE', 'NONE',  #89 ) ;
#193 = CLOSED_SHELL ( 'NONE', ( #81, #39, #26, #148, #188, #140 ) ) ;
#194 = CARTESIAN_POINT ( 'NONE',  ( 23.50000000000000000, 0.000000000000000000, 0.000000000000000000 ) ) ;
#195 = CARTESIAN_POINT ( 'NONE',  ( -23.50000000000000000, 0.000000000000000000, 0.000000000000000000 ) ) ;
#196 = EDGE_LOOP ( 'NONE', ( #200, #150, #152, #165 ) ) ;
#197 = FACE_OUTER_BOUND ( 'NONE', #102, .T. ) ;
#198 = VERTEX_POINT ( 'NONE', #141 ) ;
#199 = FACE_OUTER_BOUND ( 'NONE', #160, .T. ) ;
#200 = ORIENTED_EDGE ( 'NONE', *, *, #127, .F. ) ;
#201 = COLOUR_RGB ( '',0.2980392156862745057, 0.2980392156862745057, 0.2980392156862745057 ) ;
#202 = EDGE_LOOP ( 'NONE', ( #114, #92 ) ) ;
#203 = DIMENSIONAL_EXPONENTS ( 1.000000000000000000, 0.000000000000000000, 0.000000000000000000, 0.000000000000000000, 0.000000000000000000, 0.000000000000000000, 0.000000000000000000 ) ;
#204 = DIRECTION ( 'NONE',  ( 0.000000000000000000, 0.000000000000000000, -1.000000000000000000 ) ) ;
#205 = ORIENTED_EDGE ( 'NONE', *, *, #121, .F. ) ;
#206 =( CONVERSION_BASED_UNIT ( 'INCH', #217 ) LENGTH_UNIT ( ) NAMED_UNIT ( #106 ) );
#207 = DIRECTION ( 'NONE',  ( -1.000000000000000000, -0.000000000000000000, -0.000000000000000000 ) ) ;
#208 = EDGE_CURVE ( 'NONE', #149, #58, #37, .T. ) ;
#209 = AXIS2_PLACEMENT_3D ( 'NONE', #101, #154, #53 ) ;
#210 = UNCERTAINTY_MEASURE_WITH_UNIT (LENGTH_MEASURE( 1.000000000000000082E-05 ), #191, 'distance_accuracy_value', 'NONE');
#211 = ORIENTED_EDGE ( 'NONE', *, *, #78, .F. ) ;
#212 = LINE ( 'NONE', #175, #75 ) ;
#213 = PRESENTATION_LAYER_ASSIGNMENT (  '', '', ( #48 ) ) ;
#214 = DIRECTION ( 'NONE',  ( 1.000000000000000000, 0.000000000000000000, 0.000000000000000000 ) ) ;
#215 = EDGE_LOOP ( 'NONE', ( #88, #182, #99, #36 ) ) ;
#216 = CARTESIAN_POINT ( 'NONE',  ( 0.000000000000000000, 0.000000000000000000, 0.000000000000000000 ) ) ;
#217 = LENGTH_MEASURE_WITH_UNIT ( LENGTH_MEASURE( 0.02539999999999999897 ), #62 );
#218 = DIRECTION ( 'NONE',  ( 1.000000000000000000, 0.000000000000000000, 0.000000000000000000 ) ) ;
#219 = AXIS2_PLACEMENT_3D ( 'NONE', #79, #218, #95 ) ;
#220 = CARTESIAN_POINT ( 'NONE',  ( -23.50000000000000000, 0.000000000000000000, 1.187500000000000000 ) ) ;
#221 = ORIENTED_EDGE ( 'NONE', *, *, #5, .T. ) ;
#222 = PLANE ( 'NONE',  #61 ) ;
#223 = AXIS2_PLACEMENT_3D ( 'NONE', #194, #161, #28 ) ;
ENDSEC;
END-ISO-10303-21;
