ISO-10303-21;
HEADER;
FILE_DESCRIPTION (( 'STEP AP214' ),
    '1' );
FILE_NAME ('WCP-1265 Rev1.step',
    '2024-01-04T23:47:56',
    ( '' ),
    ( '' ),
    'SwSTEP 2.0',
    'SolidWorks 2022',
    '' );
FILE_SCHEMA (( 'AUTOMOTIVE_DESIGN' ));
ENDSEC;

DATA;
#1 = FACE_OUTER_BOUND ( 'NONE', #80, .T. ) ;
#2 = CIRCLE ( 'NONE', #114, 1.000000000000000000 ) ;
#3 = DIRECTION ( 'NONE',  ( 1.000000000000000000, 0.000000000000000000, 0.000000000000000000 ) ) ;
#4 = CARTESIAN_POINT ( 'NONE',  ( -23.50000000000000000, 0.000000000000000000, 0.000000000000000000 ) ) ;
#5 = PRESENTATION_LAYER_ASSIGNMENT (  '', '', ( #221 ) ) ;
#6 = ORIENTED_EDGE ( 'NONE', *, *, #20, .F. ) ;
#7 = AXIS2_PLACEMENT_3D ( 'NONE', #4, #55, #18 ) ;
#8 = EDGE_LOOP ( 'NONE', ( #6, #112, #155, #182 ) ) ;
#9 = FACE_OUTER_BOUND ( 'NONE', #149, .T. ) ;
#10 =( GEOMETRIC_REPRESENTATION_CONTEXT ( 3 ) GLOBAL_UNCERTAINTY_ASSIGNED_CONTEXT ( ( #68 ) ) GLOBAL_UNIT_ASSIGNED_CONTEXT ( ( #35, #106, #159 ) ) REPRESENTATION_CONTEXT ( 'NONE', 'WORKASPACE' ) );
#11 = CARTESIAN_POINT ( 'NONE',  ( -23.50000000000000000, 0.000000000000000000, 1.000000000000000000 ) ) ;
#12 = ORIENTED_EDGE ( 'NONE', *, *, #62, .F. ) ;
#13 = EDGE_CURVE ( 'NONE', #63, #61, #83, .T. ) ;
#14 = CARTESIAN_POINT ( 'NONE',  ( 23.50000000000000000, 0.000000000000000000, 0.9375000000000000000 ) ) ;
#15 =( NAMED_UNIT ( * ) SI_UNIT ( $, .STERADIAN. ) SOLID_ANGLE_UNIT ( ) );
#16 = FILL_AREA_STYLE ('',( #73 ) ) ;
#17 = AXIS2_PLACEMENT_3D ( 'NONE', #118, #218, #205 ) ;
#18 = DIRECTION ( 'NONE',  ( 0.000000000000000000, 0.000000000000000000, -1.000000000000000000 ) ) ;
#19 = DIRECTION ( 'NONE',  ( 0.000000000000000000, 0.000000000000000000, -1.000000000000000000 ) ) ;
#20 = EDGE_CURVE ( 'NONE', #129, #153, #170, .T. ) ;
#21 =( LENGTH_UNIT ( ) NAMED_UNIT ( * ) SI_UNIT ( $, .METRE. ) );
#22 = EDGE_LOOP ( 'NONE', ( #213, #86 ) ) ;
#23 = SURFACE_STYLE_USAGE ( .BOTH. , #111 ) ;
#24 = CIRCLE ( 'NONE', #17, 0.9375000000000000000 ) ;
#25 = ADVANCED_FACE ( 'NONE', ( #135, #32 ), #167, .T. ) ;
#26 = APPLICATION_PROTOCOL_DEFINITION ( 'draft international standard', 'automotive_design', 1998, #174 ) ;
#27 = ORIENTED_EDGE ( 'NONE', *, *, #44, .T. ) ;
#28 =( NAMED_UNIT ( * ) PLANE_ANGLE_UNIT ( ) SI_UNIT ( $, .RADIAN. ) );
#29 = ORIENTED_EDGE ( 'NONE', *, *, #20, .T. ) ;
#30 = CARTESIAN_POINT ( 'NONE',  ( 23.50000000000000000, 0.000000000000000000, 0.000000000000000000 ) ) ;
#31 = EDGE_LOOP ( 'NONE', ( #79, #29, #196, #46 ) ) ;
#32 = FACE_BOUND ( 'NONE', #34, .T. ) ;
#33 = UNCERTAINTY_MEASURE_WITH_UNIT (LENGTH_MEASURE( 1.000000000000000082E-05 ), #42, 'distance_accuracy_value', 'NONE');
#34 = EDGE_LOOP ( 'NONE', ( #214, #45 ) ) ;
#35 =( CONVERSION_BASED_UNIT ( 'INCH', #189 ) LENGTH_UNIT ( ) NAMED_UNIT ( #100 ) );
#36 = CIRCLE ( 'NONE', #128, 1.000000000000000000 ) ;
#37 = DIRECTION ( 'NONE',  ( 0.000000000000000000, 0.000000000000000000, -1.000000000000000000 ) ) ;
#38 = ADVANCED_FACE ( 'NONE', ( #140 ), #172, .F. ) ;
#39 = AXIS2_PLACEMENT_3D ( 'NONE', #30, #105, #201 ) ;
#40 = SHAPE_DEFINITION_REPRESENTATION ( #81, #49 ) ;
#41 = PRODUCT_DEFINITION_CONTEXT ( 'detailed design', #174, 'design' ) ;
#42 =( CONVERSION_BASED_UNIT ( 'INCH', #165 ) LENGTH_UNIT ( ) NAMED_UNIT ( #131 ) );
#43 = COLOUR_RGB ( '',0.2980392156862745057, 0.2980392156862745057, 0.2980392156862745057 ) ;
#44 = EDGE_CURVE ( 'NONE', #153, #113, #24, .T. ) ;
#45 = ORIENTED_EDGE ( 'NONE', *, *, #169, .F. ) ;
#46 = ORIENTED_EDGE ( 'NONE', *, *, #121, .F. ) ;
#47 = COLOUR_RGB ( '',0.2980392156862745057, 0.2980392156862745057, 0.2980392156862745057 ) ;
#48 = CARTESIAN_POINT ( 'NONE',  ( 23.50000000000000000, 0.000000000000000000, 1.000000000000000000 ) ) ;
#49 = ADVANCED_BREP_SHAPE_REPRESENTATION ( 'WCP-1265 Rev1', ( #152, #197 ), #10 ) ;
#50 = DIRECTION ( 'NONE',  ( -1.000000000000000000, -0.000000000000000000, -0.000000000000000000 ) ) ;
#51 = PRODUCT_DEFINITION ( 'UNKNOWN', '', #139, #41 ) ;
#52 = DIRECTION ( 'NONE',  ( 0.000000000000000000, 0.000000000000000000, 1.000000000000000000 ) ) ;
#53 = MECHANICAL_DESIGN_GEOMETRIC_PRESENTATION_REPRESENTATION (  '', ( #221 ), #87 ) ;
#54 = VERTEX_POINT ( 'NONE', #89 ) ;
#55 = DIRECTION ( 'NONE',  ( 1.000000000000000000, 0.000000000000000000, 0.000000000000000000 ) ) ;
#56 = EDGE_CURVE ( 'NONE', #183, #63, #85, .T. ) ;
#57 = CLOSED_SHELL ( 'NONE', ( #38, #95, #25, #147, #210, #220 ) ) ;
#58 = AXIS2_PLACEMENT_3D ( 'NONE', #108, #3, #19 ) ;
#59 = APPLICATION_PROTOCOL_DEFINITION ( 'draft international standard', 'automotive_design', 1998, #151 ) ;
#60 = VERTEX_POINT ( 'NONE', #48 ) ;
#61 = VERTEX_POINT ( 'NONE', #11 ) ;
#62 = EDGE_CURVE ( 'NONE', #60, #61, #66, .T. ) ;
#63 = VERTEX_POINT ( 'NONE', #64 ) ;
#64 = CARTESIAN_POINT ( 'NONE',  ( -23.50000000000000000, 1.224646799147353207E-16, -1.000000000000000000 ) ) ;
#65 = MECHANICAL_DESIGN_GEOMETRIC_PRESENTATION_REPRESENTATION (  '', ( #199 ), #72 ) ;
#66 = LINE ( 'NONE', #150, #166 ) ;
#67 = DIRECTION ( 'NONE',  ( 0.000000000000000000, 0.000000000000000000, -1.000000000000000000 ) ) ;
#68 = UNCERTAINTY_MEASURE_WITH_UNIT (LENGTH_MEASURE( 1.000000000000000082E-05 ), #35, 'distance_accuracy_value', 'NONE');
#69 = DIRECTION ( 'NONE',  ( 0.000000000000000000, 0.000000000000000000, -1.000000000000000000 ) ) ;
#70 = AXIS2_PLACEMENT_3D ( 'NONE', #171, #217, #52 ) ;
#71 = CARTESIAN_POINT ( 'NONE',  ( 23.50000000000000000, 1.148106374200643740E-16, -0.9375000000000000000 ) ) ;
#72 =( GEOMETRIC_REPRESENTATION_CONTEXT ( 3 ) GLOBAL_UNCERTAINTY_ASSIGNED_CONTEXT ( ( #33 ) ) GLOBAL_UNIT_ASSIGNED_CONTEXT ( ( #42, #28, #78 ) ) REPRESENTATION_CONTEXT ( 'NONE', 'WORKASPACE' ) );
#73 = FILL_AREA_STYLE_COLOUR ( '', #43 ) ;
#74 = CARTESIAN_POINT ( 'NONE',  ( -23.50000000000000000, 1.148106374200643740E-16, -0.9375000000000000000 ) ) ;
#75 = FACE_OUTER_BOUND ( 'NONE', #8, .T. ) ;
#76 = FILL_AREA_STYLE ('',( #198 ) ) ;
#77 = EDGE_CURVE ( 'NONE', #61, #63, #2, .T. ) ;
#78 =( NAMED_UNIT ( * ) SI_UNIT ( $, .STERADIAN. ) SOLID_ANGLE_UNIT ( ) );
#79 = ORIENTED_EDGE ( 'NONE', *, *, #93, .T. ) ;
#80 = EDGE_LOOP ( 'NONE', ( #84, #222 ) ) ;
#81 = PRODUCT_DEFINITION_SHAPE ( 'NONE', 'NONE',  #51 ) ;
#82 = PRODUCT_CONTEXT ( 'NONE', #151, 'mechanical' ) ;
#83 = CIRCLE ( 'NONE', #103, 1.000000000000000000 ) ;
#84 = ORIENTED_EDGE ( 'NONE', *, *, #77, .F. ) ;
#85 = LINE ( 'NONE', #137, #186 ) ;
#86 = ORIENTED_EDGE ( 'NONE', *, *, #130, .T. ) ;
#87 =( GEOMETRIC_REPRESENTATION_CONTEXT ( 3 ) GLOBAL_UNCERTAINTY_ASSIGNED_CONTEXT ( ( #117 ) ) GLOBAL_UNIT_ASSIGNED_CONTEXT ( ( #206, #193, #15 ) ) REPRESENTATION_CONTEXT ( 'NONE', 'WORKASPACE' ) );
#88 = CARTESIAN_POINT ( 'NONE',  ( -23.50000000000000000, 0.000000000000000000, 0.000000000000000000 ) ) ;
#89 = CARTESIAN_POINT ( 'NONE',  ( 23.50000000000000000, 0.000000000000000000, 0.9375000000000000000 ) ) ;
#90 = CARTESIAN_POINT ( 'NONE',  ( 23.50000000000000000, 0.000000000000000000, 0.000000000000000000 ) ) ;
#91 = AXIS2_PLACEMENT_3D ( 'NONE', #191, #160, #208 ) ;
#92 =( LENGTH_UNIT ( ) NAMED_UNIT ( * ) SI_UNIT ( $, .METRE. ) );
#93 = EDGE_CURVE ( 'NONE', #54, #129, #195, .T. ) ;
#94 = FACE_BOUND ( 'NONE', #115, .T. ) ;
#95 = ADVANCED_FACE ( 'NONE', ( #9 ), #122, .T. ) ;
#96 = CARTESIAN_POINT ( 'NONE',  ( 23.50000000000000000, 0.000000000000000000, 0.000000000000000000 ) ) ;
#97 =( LENGTH_UNIT ( ) NAMED_UNIT ( * ) SI_UNIT ( $, .METRE. ) );
#98 = CARTESIAN_POINT ( 'NONE',  ( 0.000000000000000000, 0.000000000000000000, 0.000000000000000000 ) ) ;
#99 = PRESENTATION_STYLE_ASSIGNMENT (( #23 ) ) ;
#100 = DIMENSIONAL_EXPONENTS ( 1.000000000000000000, 0.000000000000000000, 0.000000000000000000, 0.000000000000000000, 0.000000000000000000, 0.000000000000000000, 0.000000000000000000 ) ;
#101 = DIRECTION ( 'NONE',  ( 1.000000000000000000, 0.000000000000000000, 0.000000000000000000 ) ) ;
#102 = DIRECTION ( 'NONE',  ( 0.000000000000000000, 0.000000000000000000, -1.000000000000000000 ) ) ;
#103 = AXIS2_PLACEMENT_3D ( 'NONE', #185, #101, #67 ) ;
#104 = ORIENTED_EDGE ( 'NONE', *, *, #130, .F. ) ;
#105 = DIRECTION ( 'NONE',  ( 1.000000000000000000, 0.000000000000000000, 0.000000000000000000 ) ) ;
#106 =( NAMED_UNIT ( * ) PLANE_ANGLE_UNIT ( ) SI_UNIT ( $, .RADIAN. ) );
#107 = VECTOR ( 'NONE', #50, 39.37007874015748143 ) ;
#108 = CARTESIAN_POINT ( 'NONE',  ( -23.50000000000000000, 0.000000000000000000, 0.000000000000000000 ) ) ;
#109 = DIRECTION ( 'NONE',  ( 1.000000000000000000, 0.000000000000000000, 0.000000000000000000 ) ) ;
#110 = PRODUCT ( 'WCP-1265 Rev1', 'WCP-1265 Rev1', '', ( #82 ) ) ;
#111 = SURFACE_SIDE_STYLE ('',( #211 ) ) ;
#112 = ORIENTED_EDGE ( 'NONE', *, *, #169, .T. ) ;
#113 = VERTEX_POINT ( 'NONE', #188 ) ;
#114 = AXIS2_PLACEMENT_3D ( 'NONE', #88, #219, #69 ) ;
#115 = EDGE_LOOP ( 'NONE', ( #133, #27 ) ) ;
#116 = DIRECTION ( 'NONE',  ( -1.000000000000000000, -0.000000000000000000, -0.000000000000000000 ) ) ;
#117 = UNCERTAINTY_MEASURE_WITH_UNIT (LENGTH_MEASURE( 1.000000000000000082E-05 ), #206, 'distance_accuracy_value', 'NONE');
#118 = CARTESIAN_POINT ( 'NONE',  ( -23.50000000000000000, 0.000000000000000000, 0.000000000000000000 ) ) ;
#119 = LINE ( 'NONE', #14, #161 ) ;
#120 = AXIS2_PLACEMENT_3D ( 'NONE', #126, #109, #163 ) ;
#121 = EDGE_CURVE ( 'NONE', #54, #113, #119, .T. ) ;
#122 = CYLINDRICAL_SURFACE ( 'NONE', #132, 1.000000000000000000 ) ;
#123 = CYLINDRICAL_SURFACE ( 'NONE', #91, 0.9375000000000000000 ) ;
#124 = DIRECTION ( 'NONE',  ( 1.000000000000000000, 0.000000000000000000, 0.000000000000000000 ) ) ;
#125 = EDGE_CURVE ( 'NONE', #60, #183, #36, .T. ) ;
#126 = CARTESIAN_POINT ( 'NONE',  ( 23.50000000000000000, 0.000000000000000000, 0.000000000000000000 ) ) ;
#127 = CARTESIAN_POINT ( 'NONE',  ( 23.50000000000000000, 1.148106374200643740E-16, -0.9375000000000000000 ) ) ;
#128 = AXIS2_PLACEMENT_3D ( 'NONE', #90, #156, #37 ) ;
#129 = VERTEX_POINT ( 'NONE', #127 ) ;
#130 = EDGE_CURVE ( 'NONE', #183, #60, #178, .T. ) ;
#131 = DIMENSIONAL_EXPONENTS ( 1.000000000000000000, 0.000000000000000000, 0.000000000000000000, 0.000000000000000000, 0.000000000000000000, 0.000000000000000000, 0.000000000000000000 ) ;
#132 = AXIS2_PLACEMENT_3D ( 'NONE', #154, #136, #202 ) ;
#133 = ORIENTED_EDGE ( 'NONE', *, *, #207, .T. ) ;
#134 = AXIS2_PLACEMENT_3D ( 'NONE', #96, #124, #190 ) ;
#135 = FACE_OUTER_BOUND ( 'NONE', #22, .T. ) ;
#136 = DIRECTION ( 'NONE',  ( -1.000000000000000000, -0.000000000000000000, -0.000000000000000000 ) ) ;
#137 = CARTESIAN_POINT ( 'NONE',  ( 23.50000000000000000, 1.224646799147353207E-16, -1.000000000000000000 ) ) ;
#138 = CARTESIAN_POINT ( 'NONE',  ( 23.50000000000000000, 0.000000000000000000, 0.000000000000000000 ) ) ;
#139 = PRODUCT_DEFINITION_FORMATION_WITH_SPECIFIED_SOURCE ( 'ANY', '', #110, .NOT_KNOWN. ) ;
#140 = FACE_OUTER_BOUND ( 'NONE', #31, .T. ) ;
#141 = SURFACE_STYLE_FILL_AREA ( #16 ) ;
#142 = CIRCLE ( 'NONE', #134, 0.9375000000000000000 ) ;
#143 = CARTESIAN_POINT ( 'NONE',  ( 23.50000000000000000, 1.224646799147353207E-16, -1.000000000000000000 ) ) ;
#144 = CYLINDRICAL_SURFACE ( 'NONE', #157, 1.000000000000000000 ) ;
#145 = CIRCLE ( 'NONE', #7, 0.9375000000000000000 ) ;
#146 = DIRECTION ( 'NONE',  ( 0.000000000000000000, 0.000000000000000000, 1.000000000000000000 ) ) ;
#147 = ADVANCED_FACE ( 'NONE', ( #1, #94 ), #175, .F. ) ;
#148 = ORIENTED_EDGE ( 'NONE', *, *, #77, .T. ) ;
#149 = EDGE_LOOP ( 'NONE', ( #104, #212, #204, #12 ) ) ;
#150 = CARTESIAN_POINT ( 'NONE',  ( 23.50000000000000000, 0.000000000000000000, 1.000000000000000000 ) ) ;
#151 = APPLICATION_CONTEXT ( 'automotive_design' ) ;
#152 = MANIFOLD_SOLID_BREP ( 'Extrude-Thin2', #57 ) ;
#153 = VERTEX_POINT ( 'NONE', #74 ) ;
#154 = CARTESIAN_POINT ( 'NONE',  ( 23.50000000000000000, 0.000000000000000000, 0.000000000000000000 ) ) ;
#155 = ORIENTED_EDGE ( 'NONE', *, *, #121, .T. ) ;
#156 = DIRECTION ( 'NONE',  ( 1.000000000000000000, 0.000000000000000000, 0.000000000000000000 ) ) ;
#157 = AXIS2_PLACEMENT_3D ( 'NONE', #209, #173, #223 ) ;
#158 = SURFACE_STYLE_USAGE ( .BOTH. , #194 ) ;
#159 =( NAMED_UNIT ( * ) SI_UNIT ( $, .STERADIAN. ) SOLID_ANGLE_UNIT ( ) );
#160 = DIRECTION ( 'NONE',  ( -1.000000000000000000, -0.000000000000000000, -0.000000000000000000 ) ) ;
#161 = VECTOR ( 'NONE', #187, 39.37007874015748143 ) ;
#162 = FACE_OUTER_BOUND ( 'NONE', #180, .T. ) ;
#163 = DIRECTION ( 'NONE',  ( 0.000000000000000000, 0.000000000000000000, -1.000000000000000000 ) ) ;
#164 = PRESENTATION_LAYER_ASSIGNMENT (  '', '', ( #199 ) ) ;
#165 = LENGTH_MEASURE_WITH_UNIT ( LENGTH_MEASURE( 0.02539999999999999897 ), #21 );
#166 = VECTOR ( 'NONE', #216, 39.37007874015748143 ) ;
#167 = PLANE ( 'NONE',  #39 ) ;
#168 = ORIENTED_EDGE ( 'NONE', *, *, #56, .F. ) ;
#169 = EDGE_CURVE ( 'NONE', #129, #54, #142, .T. ) ;
#170 = LINE ( 'NONE', #71, #107 ) ;
#171 = CARTESIAN_POINT ( 'NONE',  ( 23.50000000000000000, 0.000000000000000000, 0.000000000000000000 ) ) ;
#172 = CYLINDRICAL_SURFACE ( 'NONE', #70, 0.9375000000000000000 ) ;
#173 = DIRECTION ( 'NONE',  ( -1.000000000000000000, -0.000000000000000000, -0.000000000000000000 ) ) ;
#174 = APPLICATION_CONTEXT ( 'automotive_design' ) ;
#175 = PLANE ( 'NONE',  #58 ) ;
#176 = LENGTH_MEASURE_WITH_UNIT ( LENGTH_MEASURE( 0.02539999999999999897 ), #97 );
#177 = PRESENTATION_STYLE_ASSIGNMENT (( #158 ) ) ;
#178 = CIRCLE ( 'NONE', #120, 1.000000000000000000 ) ;
#179 = ORIENTED_EDGE ( 'NONE', *, *, #125, .F. ) ;
#180 = EDGE_LOOP ( 'NONE', ( #168, #179, #215, #148 ) ) ;
#181 = DIRECTION ( 'NONE',  ( 1.000000000000000000, 0.000000000000000000, 0.000000000000000000 ) ) ;
#182 = ORIENTED_EDGE ( 'NONE', *, *, #44, .F. ) ;
#183 = VERTEX_POINT ( 'NONE', #143 ) ;
#184 = DIMENSIONAL_EXPONENTS ( 1.000000000000000000, 0.000000000000000000, 0.000000000000000000, 0.000000000000000000, 0.000000000000000000, 0.000000000000000000, 0.000000000000000000 ) ;
#185 = CARTESIAN_POINT ( 'NONE',  ( -23.50000000000000000, 0.000000000000000000, 0.000000000000000000 ) ) ;
#186 = VECTOR ( 'NONE', #116, 39.37007874015748143 ) ;
#187 = DIRECTION ( 'NONE',  ( -1.000000000000000000, -0.000000000000000000, -0.000000000000000000 ) ) ;
#188 = CARTESIAN_POINT ( 'NONE',  ( -23.50000000000000000, 0.000000000000000000, 0.9375000000000000000 ) ) ;
#189 = LENGTH_MEASURE_WITH_UNIT ( LENGTH_MEASURE( 0.02539999999999999897 ), #92 );
#190 = DIRECTION ( 'NONE',  ( 0.000000000000000000, 0.000000000000000000, -1.000000000000000000 ) ) ;
#191 = CARTESIAN_POINT ( 'NONE',  ( 23.50000000000000000, 0.000000000000000000, 0.000000000000000000 ) ) ;
#192 = PRODUCT_RELATED_PRODUCT_CATEGORY ( 'part', '', ( #110 ) ) ;
#193 =( NAMED_UNIT ( * ) PLANE_ANGLE_UNIT ( ) SI_UNIT ( $, .RADIAN. ) );
#194 = SURFACE_SIDE_STYLE ('',( #141 ) ) ;
#195 = CIRCLE ( 'NONE', #203, 0.9375000000000000000 ) ;
#196 = ORIENTED_EDGE ( 'NONE', *, *, #207, .F. ) ;
#197 = AXIS2_PLACEMENT_3D ( 'NONE', #98, #146, #181 ) ;
#198 = FILL_AREA_STYLE_COLOUR ( '', #47 ) ;
#199 = STYLED_ITEM ( 'NONE', ( #99 ), #49 ) ;
#200 = DIRECTION ( 'NONE',  ( 1.000000000000000000, 0.000000000000000000, 0.000000000000000000 ) ) ;
#201 = DIRECTION ( 'NONE',  ( 0.000000000000000000, 0.000000000000000000, -1.000000000000000000 ) ) ;
#202 = DIRECTION ( 'NONE',  ( 0.000000000000000000, 0.000000000000000000, 1.000000000000000000 ) ) ;
#203 = AXIS2_PLACEMENT_3D ( 'NONE', #138, #200, #102 ) ;
#204 = ORIENTED_EDGE ( 'NONE', *, *, #13, .T. ) ;
#205 = DIRECTION ( 'NONE',  ( 0.000000000000000000, 0.000000000000000000, -1.000000000000000000 ) ) ;
#206 =( CONVERSION_BASED_UNIT ( 'INCH', #176 ) LENGTH_UNIT ( ) NAMED_UNIT ( #184 ) );
#207 = EDGE_CURVE ( 'NONE', #113, #153, #145, .T. ) ;
#208 = DIRECTION ( 'NONE',  ( 0.000000000000000000, 0.000000000000000000, 1.000000000000000000 ) ) ;
#209 = CARTESIAN_POINT ( 'NONE',  ( 23.50000000000000000, 0.000000000000000000, 0.000000000000000000 ) ) ;
#210 = ADVANCED_FACE ( 'NONE', ( #162 ), #144, .T. ) ;
#211 = SURFACE_STYLE_FILL_AREA ( #76 ) ;
#212 = ORIENTED_EDGE ( 'NONE', *, *, #56, .T. ) ;
#213 = ORIENTED_EDGE ( 'NONE', *, *, #125, .T. ) ;
#214 = ORIENTED_EDGE ( 'NONE', *, *, #93, .F. ) ;
#215 = ORIENTED_EDGE ( 'NONE', *, *, #62, .T. ) ;
#216 = DIRECTION ( 'NONE',  ( -1.000000000000000000, -0.000000000000000000, -0.000000000000000000 ) ) ;
#217 = DIRECTION ( 'NONE',  ( -1.000000000000000000, -0.000000000000000000, -0.000000000000000000 ) ) ;
#218 = DIRECTION ( 'NONE',  ( 1.000000000000000000, 0.000000000000000000, 0.000000000000000000 ) ) ;
#219 = DIRECTION ( 'NONE',  ( 1.000000000000000000, 0.000000000000000000, 0.000000000000000000 ) ) ;
#220 = ADVANCED_FACE ( 'NONE', ( #75 ), #123, .F. ) ;
#221 = STYLED_ITEM ( 'NONE', ( #177 ), #152 ) ;
#222 = ORIENTED_EDGE ( 'NONE', *, *, #13, .F. ) ;
#223 = DIRECTION ( 'NONE',  ( 0.000000000000000000, 0.000000000000000000, 1.000000000000000000 ) ) ;
ENDSEC;
END-ISO-10303-21;
