ISO-10303-21;
HEADER;
FILE_DESCRIPTION (( 'STEP AP214' ),
    '1' );
FILE_NAME ('WCP-1264 Rev1.step',
    '2024-01-04T23:47:52',
    ( '' ),
    ( '' ),
    'SwSTEP 2.0',
    'SolidWorks 2022',
    '' );
FILE_SCHEMA (( 'AUTOMOTIVE_DESIGN' ));
ENDSEC;

DATA;
#1 = AXIS2_PLACEMENT_3D ( 'NONE', #113, #188, #195 ) ;
#2 = ADVANCED_BREP_SHAPE_REPRESENTATION ( 'WCP-1264 Rev1', ( #53, #1 ), #144 ) ;
#3 = FILL_AREA_STYLE ('',( #140 ) ) ;
#4 = EDGE_CURVE ( 'NONE', #59, #93, #146, .T. ) ;
#5 = DIRECTION ( 'NONE',  ( 1.000000000000000000, 0.000000000000000000, 0.000000000000000000 ) ) ;
#6 = COLOUR_RGB ( '',0.2980392156862745057, 0.2980392156862745057, 0.2980392156862745057 ) ;
#7 = EDGE_LOOP ( 'NONE', ( #184, #20, #115, #185 ) ) ;
#8 = ORIENTED_EDGE ( 'NONE', *, *, #173, .T. ) ;
#9 = APPLICATION_CONTEXT ( 'automotive_design' ) ;
#10 = ORIENTED_EDGE ( 'NONE', *, *, #205, .F. ) ;
#11 = EDGE_CURVE ( 'NONE', #199, #56, #169, .T. ) ;
#12 = ORIENTED_EDGE ( 'NONE', *, *, #209, .F. ) ;
#13 = CARTESIAN_POINT ( 'NONE',  ( -23.50000000000000000, 0.000000000000000000, 0.6875000000000001110 ) ) ;
#14 = AXIS2_PLACEMENT_3D ( 'NONE', #178, #80, #159 ) ;
#15 = CYLINDRICAL_SURFACE ( 'NONE', #14, 0.6875000000000001110 ) ;
#16 = EDGE_CURVE ( 'NONE', #114, #151, #218, .T. ) ;
#17 = DIRECTION ( 'NONE',  ( 1.000000000000000000, 0.000000000000000000, 0.000000000000000000 ) ) ;
#18 =( NAMED_UNIT ( * ) PLANE_ANGLE_UNIT ( ) SI_UNIT ( $, .RADIAN. ) );
#19 = CIRCLE ( 'NONE', #158, 0.6875000000000001110 ) ;
#20 = ORIENTED_EDGE ( 'NONE', *, *, #16, .T. ) ;
#21 = PRODUCT_DEFINITION_FORMATION_WITH_SPECIFIED_SOURCE ( 'ANY', '', #104, .NOT_KNOWN. ) ;
#22 = ORIENTED_EDGE ( 'NONE', *, *, #119, .T. ) ;
#23 = ORIENTED_EDGE ( 'NONE', *, *, #221, .T. ) ;
#24 = ORIENTED_EDGE ( 'NONE', *, *, #156, .F. ) ;
#25 = PLANE ( 'NONE',  #51 ) ;
#26 = ADVANCED_FACE ( 'NONE', ( #131 ), #96, .T. ) ;
#27 = CARTESIAN_POINT ( 'NONE',  ( -23.50000000000000000, 9.184850993605150903E-17, -0.7500000000000001110 ) ) ;
#28 = DIRECTION ( 'NONE',  ( 1.000000000000000000, 0.000000000000000000, 0.000000000000000000 ) ) ;
#29 = MECHANICAL_DESIGN_GEOMETRIC_PRESENTATION_REPRESENTATION (  '', ( #186 ), #79 ) ;
#30 = AXIS2_PLACEMENT_3D ( 'NONE', #190, #122, #191 ) ;
#31 = DIRECTION ( 'NONE',  ( 1.000000000000000000, 0.000000000000000000, 0.000000000000000000 ) ) ;
#32 = EDGE_CURVE ( 'NONE', #151, #56, #88, .T. ) ;
#33 = CARTESIAN_POINT ( 'NONE',  ( 23.50000000000000000, 8.419446744138053762E-17, -0.6875000000000001110 ) ) ;
#34 = SURFACE_SIDE_STYLE ('',( #143 ) ) ;
#35 = UNCERTAINTY_MEASURE_WITH_UNIT (LENGTH_MEASURE( 1.000000000000000082E-05 ), #171, 'distance_accuracy_value', 'NONE');
#36 = PRODUCT_CONTEXT ( 'NONE', #9, 'mechanical' ) ;
#37 = CARTESIAN_POINT ( 'NONE',  ( 23.50000000000000000, 9.184850993605150903E-17, -0.7500000000000001110 ) ) ;
#38 = ORIENTED_EDGE ( 'NONE', *, *, #205, .T. ) ;
#39 = ORIENTED_EDGE ( 'NONE', *, *, #209, .T. ) ;
#40 = ADVANCED_FACE ( 'NONE', ( #77 ), #15, .F. ) ;
#41 = AXIS2_PLACEMENT_3D ( 'NONE', #98, #31, #204 ) ;
#42 = AXIS2_PLACEMENT_3D ( 'NONE', #90, #128, #111 ) ;
#43 = EDGE_LOOP ( 'NONE', ( #168, #129 ) ) ;
#44 = DIRECTION ( 'NONE',  ( 0.000000000000000000, 0.000000000000000000, 1.000000000000000000 ) ) ;
#45 = FILL_AREA_STYLE ('',( #65 ) ) ;
#46 = PRESENTATION_STYLE_ASSIGNMENT (( #189 ) ) ;
#47 = DIRECTION ( 'NONE',  ( 0.000000000000000000, 0.000000000000000000, -1.000000000000000000 ) ) ;
#48 = CYLINDRICAL_SURFACE ( 'NONE', #91, 0.6875000000000001110 ) ;
#49 = PRESENTATION_STYLE_ASSIGNMENT (( #126 ) ) ;
#50 = DIRECTION ( 'NONE',  ( 0.000000000000000000, 0.000000000000000000, -1.000000000000000000 ) ) ;
#51 = AXIS2_PLACEMENT_3D ( 'NONE', #223, #60, #136 ) ;
#52 = DIRECTION ( 'NONE',  ( -1.000000000000000000, -0.000000000000000000, -0.000000000000000000 ) ) ;
#53 = MANIFOLD_SOLID_BREP ( 'Extrude-Thin2', #101 ) ;
#54 = PRODUCT_DEFINITION_CONTEXT ( 'detailed design', #97, 'design' ) ;
#55 = ORIENTED_EDGE ( 'NONE', *, *, #74, .F. ) ;
#56 = VERTEX_POINT ( 'NONE', #174 ) ;
#57 = DIRECTION ( 'NONE',  ( -1.000000000000000000, -0.000000000000000000, -0.000000000000000000 ) ) ;
#58 = STYLED_ITEM ( 'NONE', ( #46 ), #53 ) ;
#59 = VERTEX_POINT ( 'NONE', #100 ) ;
#60 = DIRECTION ( 'NONE',  ( 1.000000000000000000, 0.000000000000000000, 0.000000000000000000 ) ) ;
#61 = CARTESIAN_POINT ( 'NONE',  ( 23.50000000000000000, 8.419446744138053762E-17, -0.6875000000000001110 ) ) ;
#62 = PRODUCT_RELATED_PRODUCT_CATEGORY ( 'part', '', ( #104 ) ) ;
#63 = CARTESIAN_POINT ( 'NONE',  ( 23.50000000000000000, 9.184850993605150903E-17, -0.7500000000000001110 ) ) ;
#64 =( NAMED_UNIT ( * ) SI_UNIT ( $, .STERADIAN. ) SOLID_ANGLE_UNIT ( ) );
#65 = FILL_AREA_STYLE_COLOUR ( '', #112 ) ;
#66 =( CONVERSION_BASED_UNIT ( 'INCH', #125 ) LENGTH_UNIT ( ) NAMED_UNIT ( #141 ) );
#67 =( NAMED_UNIT ( * ) PLANE_ANGLE_UNIT ( ) SI_UNIT ( $, .RADIAN. ) );
#68 = ADVANCED_FACE ( 'NONE', ( #139 ), #210, .T. ) ;
#69 = MECHANICAL_DESIGN_GEOMETRIC_PRESENTATION_REPRESENTATION (  '', ( #58 ), #134 ) ;
#70 = VECTOR ( 'NONE', #150, 39.37007874015748143 ) ;
#71 = FACE_OUTER_BOUND ( 'NONE', #170, .T. ) ;
#72 = ORIENTED_EDGE ( 'NONE', *, *, #156, .T. ) ;
#73 = ORIENTED_EDGE ( 'NONE', *, *, #4, .F. ) ;
#74 = EDGE_CURVE ( 'NONE', #56, #151, #121, .T. ) ;
#75 = ORIENTED_EDGE ( 'NONE', *, *, #74, .T. ) ;
#76 = CARTESIAN_POINT ( 'NONE',  ( 23.50000000000000000, 0.000000000000000000, 0.000000000000000000 ) ) ;
#77 = FACE_OUTER_BOUND ( 'NONE', #203, .T. ) ;
#78 = CARTESIAN_POINT ( 'NONE',  ( -23.50000000000000000, 0.000000000000000000, 0.000000000000000000 ) ) ;
#79 =( GEOMETRIC_REPRESENTATION_CONTEXT ( 3 ) GLOBAL_UNCERTAINTY_ASSIGNED_CONTEXT ( ( #148 ) ) GLOBAL_UNIT_ASSIGNED_CONTEXT ( ( #164, #67, #212 ) ) REPRESENTATION_CONTEXT ( 'NONE', 'WORKASPACE' ) );
#80 = DIRECTION ( 'NONE',  ( -1.000000000000000000, -0.000000000000000000, -0.000000000000000000 ) ) ;
#81 = DIRECTION ( 'NONE',  ( 0.000000000000000000, 0.000000000000000000, -1.000000000000000000 ) ) ;
#82 = LINE ( 'NONE', #33, #99 ) ;
#83 = DIRECTION ( 'NONE',  ( 1.000000000000000000, 0.000000000000000000, 0.000000000000000000 ) ) ;
#84 = DIMENSIONAL_EXPONENTS ( 1.000000000000000000, 0.000000000000000000, 0.000000000000000000, 0.000000000000000000, 0.000000000000000000, 0.000000000000000000, 0.000000000000000000 ) ;
#85 = CARTESIAN_POINT ( 'NONE',  ( 23.50000000000000000, 0.000000000000000000, 0.6875000000000001110 ) ) ;
#86 = DIRECTION ( 'NONE',  ( 0.000000000000000000, 0.000000000000000000, -1.000000000000000000 ) ) ;
#87 = LENGTH_MEASURE_WITH_UNIT ( LENGTH_MEASURE( 0.02539999999999999897 ), #108 );
#88 = CIRCLE ( 'NONE', #30, 0.7500000000000001110 ) ;
#89 = EDGE_LOOP ( 'NONE', ( #109, #12, #197, #75 ) ) ;
#90 = CARTESIAN_POINT ( 'NONE',  ( -23.50000000000000000, 0.000000000000000000, 0.000000000000000000 ) ) ;
#91 = AXIS2_PLACEMENT_3D ( 'NONE', #194, #181, #123 ) ;
#92 = APPLICATION_PROTOCOL_DEFINITION ( 'draft international standard', 'automotive_design', 1998, #97 ) ;
#93 = VERTEX_POINT ( 'NONE', #13 ) ;
#94 = VERTEX_POINT ( 'NONE', #61 ) ;
#95 = ORIENTED_EDGE ( 'NONE', *, *, #32, .F. ) ;
#96 = CYLINDRICAL_SURFACE ( 'NONE', #200, 0.7500000000000001110 ) ;
#97 = APPLICATION_CONTEXT ( 'automotive_design' ) ;
#98 = CARTESIAN_POINT ( 'NONE',  ( -23.50000000000000000, 0.000000000000000000, 0.000000000000000000 ) ) ;
#99 = VECTOR ( 'NONE', #52, 39.37007874015748143 ) ;
#100 = CARTESIAN_POINT ( 'NONE',  ( -23.50000000000000000, 8.419446744138053762E-17, -0.6875000000000001110 ) ) ;
#101 = CLOSED_SHELL ( 'NONE', ( #213, #26, #110, #214, #68, #40 ) ) ;
#102 = CARTESIAN_POINT ( 'NONE',  ( 23.50000000000000000, 0.000000000000000000, 0.000000000000000000 ) ) ;
#103 = CARTESIAN_POINT ( 'NONE',  ( 23.50000000000000000, 0.000000000000000000, 0.7500000000000001110 ) ) ;
#104 = PRODUCT ( 'WCP-1264 Rev1', 'WCP-1264 Rev1', '', ( #36 ) ) ;
#105 = EDGE_CURVE ( 'NONE', #135, #94, #19, .T. ) ;
#106 = DIRECTION ( 'NONE',  ( 0.000000000000000000, 0.000000000000000000, -1.000000000000000000 ) ) ;
#107 =( LENGTH_UNIT ( ) NAMED_UNIT ( * ) SI_UNIT ( $, .METRE. ) );
#108 =( LENGTH_UNIT ( ) NAMED_UNIT ( * ) SI_UNIT ( $, .METRE. ) );
#109 = ORIENTED_EDGE ( 'NONE', *, *, #16, .F. ) ;
#110 = ADVANCED_FACE ( 'NONE', ( #137, #116 ), #25, .T. ) ;
#111 = DIRECTION ( 'NONE',  ( 0.000000000000000000, 0.000000000000000000, -1.000000000000000000 ) ) ;
#112 = COLOUR_RGB ( '',0.2980392156862745057, 0.2980392156862745057, 0.2980392156862745057 ) ;
#113 = CARTESIAN_POINT ( 'NONE',  ( 0.000000000000000000, 0.000000000000000000, 0.000000000000000000 ) ) ;
#114 = VERTEX_POINT ( 'NONE', #63 ) ;
#115 = ORIENTED_EDGE ( 'NONE', *, *, #32, .T. ) ;
#116 = FACE_BOUND ( 'NONE', #43, .T. ) ;
#117 = DIRECTION ( 'NONE',  ( 0.000000000000000000, 0.000000000000000000, 1.000000000000000000 ) ) ;
#118 = CARTESIAN_POINT ( 'NONE',  ( 23.50000000000000000, 0.000000000000000000, 0.6875000000000001110 ) ) ;
#119 = EDGE_CURVE ( 'NONE', #94, #135, #145, .T. ) ;
#120 = CARTESIAN_POINT ( 'NONE',  ( 23.50000000000000000, 0.000000000000000000, 0.000000000000000000 ) ) ;
#121 = CIRCLE ( 'NONE', #220, 0.7500000000000001110 ) ;
#122 = DIRECTION ( 'NONE',  ( 1.000000000000000000, 0.000000000000000000, 0.000000000000000000 ) ) ;
#123 = DIRECTION ( 'NONE',  ( 0.000000000000000000, 0.000000000000000000, 1.000000000000000000 ) ) ;
#124 = FACE_BOUND ( 'NONE', #149, .T. ) ;
#125 = LENGTH_MEASURE_WITH_UNIT ( LENGTH_MEASURE( 0.02539999999999999897 ), #107 );
#126 = SURFACE_STYLE_USAGE ( .BOTH. , #34 ) ;
#127 = FACE_OUTER_BOUND ( 'NONE', #183, .T. ) ;
#128 = DIRECTION ( 'NONE',  ( 1.000000000000000000, 0.000000000000000000, 0.000000000000000000 ) ) ;
#129 = ORIENTED_EDGE ( 'NONE', *, *, #119, .F. ) ;
#130 = PRODUCT_DEFINITION ( 'UNKNOWN', '', #21, #54 ) ;
#131 = FACE_OUTER_BOUND ( 'NONE', #7, .T. ) ;
#132 = ORIENTED_EDGE ( 'NONE', *, *, #105, .T. ) ;
#133 = PRESENTATION_LAYER_ASSIGNMENT (  '', '', ( #186 ) ) ;
#134 =( GEOMETRIC_REPRESENTATION_CONTEXT ( 3 ) GLOBAL_UNCERTAINTY_ASSIGNED_CONTEXT ( ( #35 ) ) GLOBAL_UNIT_ASSIGNED_CONTEXT ( ( #171, #172, #64 ) ) REPRESENTATION_CONTEXT ( 'NONE', 'WORKASPACE' ) );
#135 = VERTEX_POINT ( 'NONE', #118 ) ;
#136 = DIRECTION ( 'NONE',  ( 0.000000000000000000, 0.000000000000000000, -1.000000000000000000 ) ) ;
#137 = FACE_OUTER_BOUND ( 'NONE', #219, .T. ) ;
#138 = DIRECTION ( 'NONE',  ( 1.000000000000000000, 0.000000000000000000, 0.000000000000000000 ) ) ;
#139 = FACE_OUTER_BOUND ( 'NONE', #89, .T. ) ;
#140 = FILL_AREA_STYLE_COLOUR ( '', #6 ) ;
#141 = DIMENSIONAL_EXPONENTS ( 1.000000000000000000, 0.000000000000000000, 0.000000000000000000, 0.000000000000000000, 0.000000000000000000, 0.000000000000000000, 0.000000000000000000 ) ;
#142 = CARTESIAN_POINT ( 'NONE',  ( 23.50000000000000000, 0.000000000000000000, 0.000000000000000000 ) ) ;
#143 = SURFACE_STYLE_FILL_AREA ( #3 ) ;
#144 =( GEOMETRIC_REPRESENTATION_CONTEXT ( 3 ) GLOBAL_UNCERTAINTY_ASSIGNED_CONTEXT ( ( #206 ) ) GLOBAL_UNIT_ASSIGNED_CONTEXT ( ( #66, #18, #216 ) ) REPRESENTATION_CONTEXT ( 'NONE', 'WORKASPACE' ) );
#145 = CIRCLE ( 'NONE', #187, 0.6875000000000001110 ) ;
#146 = CIRCLE ( 'NONE', #42, 0.6875000000000001110 ) ;
#147 = APPLICATION_PROTOCOL_DEFINITION ( 'draft international standard', 'automotive_design', 1998, #9 ) ;
#148 = UNCERTAINTY_MEASURE_WITH_UNIT (LENGTH_MEASURE( 1.000000000000000082E-05 ), #164, 'distance_accuracy_value', 'NONE');
#149 = EDGE_LOOP ( 'NONE', ( #72, #217 ) ) ;
#150 = DIRECTION ( 'NONE',  ( -1.000000000000000000, -0.000000000000000000, -0.000000000000000000 ) ) ;
#151 = VERTEX_POINT ( 'NONE', #27 ) ;
#152 = AXIS2_PLACEMENT_3D ( 'NONE', #76, #222, #44 ) ;
#153 = LENGTH_MEASURE_WITH_UNIT ( LENGTH_MEASURE( 0.02539999999999999897 ), #175 );
#154 = SURFACE_STYLE_FILL_AREA ( #45 ) ;
#155 = CARTESIAN_POINT ( 'NONE',  ( 23.50000000000000000, 0.000000000000000000, 0.000000000000000000 ) ) ;
#156 = EDGE_CURVE ( 'NONE', #93, #59, #215, .T. ) ;
#157 = AXIS2_PLACEMENT_3D ( 'NONE', #162, #17, #86 ) ;
#158 = AXIS2_PLACEMENT_3D ( 'NONE', #155, #161, #47 ) ;
#159 = DIRECTION ( 'NONE',  ( 0.000000000000000000, 0.000000000000000000, 1.000000000000000000 ) ) ;
#160 = PRODUCT_DEFINITION_SHAPE ( 'NONE', 'NONE',  #130 ) ;
#161 = DIRECTION ( 'NONE',  ( 1.000000000000000000, 0.000000000000000000, 0.000000000000000000 ) ) ;
#162 = CARTESIAN_POINT ( 'NONE',  ( -23.50000000000000000, 0.000000000000000000, 0.000000000000000000 ) ) ;
#163 = DIRECTION ( 'NONE',  ( -1.000000000000000000, -0.000000000000000000, -0.000000000000000000 ) ) ;
#164 =( CONVERSION_BASED_UNIT ( 'INCH', #87 ) LENGTH_UNIT ( ) NAMED_UNIT ( #84 ) );
#165 = AXIS2_PLACEMENT_3D ( 'NONE', #102, #83, #106 ) ;
#166 = PRESENTATION_LAYER_ASSIGNMENT (  '', '', ( #58 ) ) ;
#167 = VECTOR ( 'NONE', #57, 39.37007874015748143 ) ;
#168 = ORIENTED_EDGE ( 'NONE', *, *, #105, .F. ) ;
#169 = LINE ( 'NONE', #196, #70 ) ;
#170 = EDGE_LOOP ( 'NONE', ( #132, #38, #24, #201 ) ) ;
#171 =( CONVERSION_BASED_UNIT ( 'INCH', #153 ) LENGTH_UNIT ( ) NAMED_UNIT ( #180 ) );
#172 =( NAMED_UNIT ( * ) PLANE_ANGLE_UNIT ( ) SI_UNIT ( $, .RADIAN. ) );
#173 = EDGE_CURVE ( 'NONE', #114, #199, #177, .T. ) ;
#174 = CARTESIAN_POINT ( 'NONE',  ( -23.50000000000000000, 0.000000000000000000, 0.7500000000000001110 ) ) ;
#175 =( LENGTH_UNIT ( ) NAMED_UNIT ( * ) SI_UNIT ( $, .METRE. ) );
#176 = VECTOR ( 'NONE', #163, 39.37007874015748143 ) ;
#177 = CIRCLE ( 'NONE', #202, 0.7500000000000001110 ) ;
#178 = CARTESIAN_POINT ( 'NONE',  ( 23.50000000000000000, 0.000000000000000000, 0.000000000000000000 ) ) ;
#179 = PLANE ( 'NONE',  #157 ) ;
#180 = DIMENSIONAL_EXPONENTS ( 1.000000000000000000, 0.000000000000000000, 0.000000000000000000, 0.000000000000000000, 0.000000000000000000, 0.000000000000000000, 0.000000000000000000 ) ;
#181 = DIRECTION ( 'NONE',  ( -1.000000000000000000, -0.000000000000000000, -0.000000000000000000 ) ) ;
#182 = LINE ( 'NONE', #85, #176 ) ;
#183 = EDGE_LOOP ( 'NONE', ( #55, #95 ) ) ;
#184 = ORIENTED_EDGE ( 'NONE', *, *, #173, .F. ) ;
#185 = ORIENTED_EDGE ( 'NONE', *, *, #11, .F. ) ;
#186 = STYLED_ITEM ( 'NONE', ( #49 ), #2 ) ;
#187 = AXIS2_PLACEMENT_3D ( 'NONE', #192, #138, #208 ) ;
#188 = DIRECTION ( 'NONE',  ( 0.000000000000000000, 0.000000000000000000, 1.000000000000000000 ) ) ;
#189 = SURFACE_STYLE_USAGE ( .BOTH. , #207 ) ;
#190 = CARTESIAN_POINT ( 'NONE',  ( -23.50000000000000000, 0.000000000000000000, 0.000000000000000000 ) ) ;
#191 = DIRECTION ( 'NONE',  ( 0.000000000000000000, 0.000000000000000000, -1.000000000000000000 ) ) ;
#192 = CARTESIAN_POINT ( 'NONE',  ( 23.50000000000000000, 0.000000000000000000, 0.000000000000000000 ) ) ;
#193 = CIRCLE ( 'NONE', #165, 0.7500000000000001110 ) ;
#194 = CARTESIAN_POINT ( 'NONE',  ( 23.50000000000000000, 0.000000000000000000, 0.000000000000000000 ) ) ;
#195 = DIRECTION ( 'NONE',  ( 1.000000000000000000, 0.000000000000000000, 0.000000000000000000 ) ) ;
#196 = CARTESIAN_POINT ( 'NONE',  ( 23.50000000000000000, 0.000000000000000000, 0.7500000000000001110 ) ) ;
#197 = ORIENTED_EDGE ( 'NONE', *, *, #11, .T. ) ;
#198 = SHAPE_DEFINITION_REPRESENTATION ( #160, #2 ) ;
#199 = VERTEX_POINT ( 'NONE', #103 ) ;
#200 = AXIS2_PLACEMENT_3D ( 'NONE', #120, #211, #117 ) ;
#201 = ORIENTED_EDGE ( 'NONE', *, *, #221, .F. ) ;
#202 = AXIS2_PLACEMENT_3D ( 'NONE', #142, #5, #50 ) ;
#203 = EDGE_LOOP ( 'NONE', ( #10, #22, #23, #73 ) ) ;
#204 = DIRECTION ( 'NONE',  ( 0.000000000000000000, 0.000000000000000000, -1.000000000000000000 ) ) ;
#205 = EDGE_CURVE ( 'NONE', #94, #59, #82, .T. ) ;
#206 = UNCERTAINTY_MEASURE_WITH_UNIT (LENGTH_MEASURE( 1.000000000000000082E-05 ), #66, 'distance_accuracy_value', 'NONE');
#207 = SURFACE_SIDE_STYLE ('',( #154 ) ) ;
#208 = DIRECTION ( 'NONE',  ( 0.000000000000000000, 0.000000000000000000, -1.000000000000000000 ) ) ;
#209 = EDGE_CURVE ( 'NONE', #199, #114, #193, .T. ) ;
#210 = CYLINDRICAL_SURFACE ( 'NONE', #152, 0.7500000000000001110 ) ;
#211 = DIRECTION ( 'NONE',  ( -1.000000000000000000, -0.000000000000000000, -0.000000000000000000 ) ) ;
#212 =( NAMED_UNIT ( * ) SI_UNIT ( $, .STERADIAN. ) SOLID_ANGLE_UNIT ( ) );
#213 = ADVANCED_FACE ( 'NONE', ( #71 ), #48, .F. ) ;
#214 = ADVANCED_FACE ( 'NONE', ( #127, #124 ), #179, .F. ) ;
#215 = CIRCLE ( 'NONE', #41, 0.6875000000000001110 ) ;
#216 =( NAMED_UNIT ( * ) SI_UNIT ( $, .STERADIAN. ) SOLID_ANGLE_UNIT ( ) );
#217 = ORIENTED_EDGE ( 'NONE', *, *, #4, .T. ) ;
#218 = LINE ( 'NONE', #37, #167 ) ;
#219 = EDGE_LOOP ( 'NONE', ( #39, #8 ) ) ;
#220 = AXIS2_PLACEMENT_3D ( 'NONE', #78, #28, #81 ) ;
#221 = EDGE_CURVE ( 'NONE', #135, #93, #182, .T. ) ;
#222 = DIRECTION ( 'NONE',  ( -1.000000000000000000, -0.000000000000000000, -0.000000000000000000 ) ) ;
#223 = CARTESIAN_POINT ( 'NONE',  ( 23.50000000000000000, 0.000000000000000000, 0.000000000000000000 ) ) ;
ENDSEC;
END-ISO-10303-21;
