ISO-10303-21;
HEADER;
FILE_DESCRIPTION (( 'STEP AP214' ),
    '1' );
FILE_NAME ('WCP-1263 Rev1.step',
    '2024-01-04T23:47:47',
    ( '' ),
    ( '' ),
    'SwSTEP 2.0',
    'SolidWorks 2022',
    '' );
FILE_SCHEMA (( 'AUTOMOTIVE_DESIGN' ));
ENDSEC;

DATA;
#1 = CARTESIAN_POINT ( 'NONE',  ( 23.50000000000000000, 0.000000000000000000, 0.6250000000000000000 ) ) ;
#2 = DIRECTION ( 'NONE',  ( -1.000000000000000000, -0.000000000000000000, -0.000000000000000000 ) ) ;
#3 = DIRECTION ( 'NONE',  ( 1.000000000000000000, 0.000000000000000000, 0.000000000000000000 ) ) ;
#4 = CIRCLE ( 'NONE', #47, 0.6250000000000000000 ) ;
#5 =( GEOMETRIC_REPRESENTATION_CONTEXT ( 3 ) GLOBAL_UNCERTAINTY_ASSIGNED_CONTEXT ( ( #14 ) ) GLOBAL_UNIT_ASSIGNED_CONTEXT ( ( #122, #33, #17 ) ) REPRESENTATION_CONTEXT ( 'NONE', 'WORKASPACE' ) );
#6 = VERTEX_POINT ( 'NONE', #115 ) ;
#7 = EDGE_CURVE ( 'NONE', #6, #179, #165, .T. ) ;
#8 = ORIENTED_EDGE ( 'NONE', *, *, #21, .T. ) ;
#9 = APPLICATION_CONTEXT ( 'automotive_design' ) ;
#10 = ORIENTED_EDGE ( 'NONE', *, *, #42, .F. ) ;
#11 = PRESENTATION_STYLE_ASSIGNMENT (( #85 ) ) ;
#12 = CARTESIAN_POINT ( 'NONE',  ( 23.50000000000000000, 0.000000000000000000, 0.000000000000000000 ) ) ;
#13 = FACE_OUTER_BOUND ( 'NONE', #22, .T. ) ;
#14 = UNCERTAINTY_MEASURE_WITH_UNIT (LENGTH_MEASURE( 1.000000000000000082E-05 ), #122, 'distance_accuracy_value', 'NONE');
#15 = FACE_BOUND ( 'NONE', #144, .T. ) ;
#16 = EDGE_CURVE ( 'NONE', #146, #179, #62, .T. ) ;
#17 =( NAMED_UNIT ( * ) SI_UNIT ( $, .STERADIAN. ) SOLID_ANGLE_UNIT ( ) );
#18 = FILL_AREA_STYLE_COLOUR ( '', #36 ) ;
#19 = STYLED_ITEM ( 'NONE', ( #156 ), #67 ) ;
#20 =( NAMED_UNIT ( * ) PLANE_ANGLE_UNIT ( ) SI_UNIT ( $, .RADIAN. ) );
#21 = EDGE_CURVE ( 'NONE', #146, #148, #200, .T. ) ;
#22 = EDGE_LOOP ( 'NONE', ( #110, #164, #145, #74 ) ) ;
#23 = ORIENTED_EDGE ( 'NONE', *, *, #130, .F. ) ;
#24 = AXIS2_PLACEMENT_3D ( 'NONE', #133, #221, #52 ) ;
#25 = FACE_BOUND ( 'NONE', #176, .T. ) ;
#26 = EDGE_LOOP ( 'NONE', ( #78, #8, #210, #44 ) ) ;
#27 = ORIENTED_EDGE ( 'NONE', *, *, #130, .T. ) ;
#28 = DIRECTION ( 'NONE',  ( 0.000000000000000000, 0.000000000000000000, -1.000000000000000000 ) ) ;
#29 = EDGE_CURVE ( 'NONE', #194, #60, #4, .T. ) ;
#30 = DIRECTION ( 'NONE',  ( 0.000000000000000000, 0.000000000000000000, -1.000000000000000000 ) ) ;
#31 = DIRECTION ( 'NONE',  ( 0.000000000000000000, 0.000000000000000000, -1.000000000000000000 ) ) ;
#32 = DIRECTION ( 'NONE',  ( 0.000000000000000000, 0.000000000000000000, 1.000000000000000000 ) ) ;
#33 =( NAMED_UNIT ( * ) PLANE_ANGLE_UNIT ( ) SI_UNIT ( $, .RADIAN. ) );
#34 = CARTESIAN_POINT ( 'NONE',  ( -23.50000000000000000, 0.000000000000000000, 0.000000000000000000 ) ) ;
#35 = AXIS2_PLACEMENT_3D ( 'NONE', #154, #172, #100 ) ;
#36 = COLOUR_RGB ( '',0.2980392156862745057, 0.2980392156862745057, 0.2980392156862745057 ) ;
#37 =( NAMED_UNIT ( * ) SI_UNIT ( $, .STERADIAN. ) SOLID_ANGLE_UNIT ( ) );
#38 = CLOSED_SHELL ( 'NONE', ( #77, #81, #89, #51, #84, #102 ) ) ;
#39 = DIRECTION ( 'NONE',  ( 0.000000000000000000, 0.000000000000000000, 1.000000000000000000 ) ) ;
#40 = FACE_OUTER_BOUND ( 'NONE', #131, .T. ) ;
#41 = ORIENTED_EDGE ( 'NONE', *, *, #29, .T. ) ;
#42 = EDGE_CURVE ( 'NONE', #148, #6, #58, .T. ) ;
#43 = SHAPE_DEFINITION_REPRESENTATION ( #72, #67 ) ;
#44 = ORIENTED_EDGE ( 'NONE', *, *, #121, .F. ) ;
#45 = VERTEX_POINT ( 'NONE', #190 ) ;
#46 = CARTESIAN_POINT ( 'NONE',  ( 23.50000000000000000, 6.888638245203861944E-17, -0.5625000000000000000 ) ) ;
#47 = AXIS2_PLACEMENT_3D ( 'NONE', #211, #214, #180 ) ;
#48 = PRODUCT_DEFINITION_FORMATION_WITH_SPECIFIED_SOURCE ( 'ANY', '', #147, .NOT_KNOWN. ) ;
#49 = DIRECTION ( 'NONE',  ( -1.000000000000000000, -0.000000000000000000, -0.000000000000000000 ) ) ;
#50 = CARTESIAN_POINT ( 'NONE',  ( -23.50000000000000000, 0.000000000000000000, 0.000000000000000000 ) ) ;
#51 = ADVANCED_FACE ( 'NONE', ( #40, #25 ), #201, .F. ) ;
#52 = DIRECTION ( 'NONE',  ( 0.000000000000000000, 0.000000000000000000, -1.000000000000000000 ) ) ;
#53 = CYLINDRICAL_SURFACE ( 'NONE', #205, 0.6250000000000000000 ) ;
#54 = PRODUCT_CONTEXT ( 'NONE', #73, 'mechanical' ) ;
#55 = PRODUCT_DEFINITION ( 'UNKNOWN', '', #48, #69 ) ;
#56 = DIRECTION ( 'NONE',  ( -1.000000000000000000, -0.000000000000000000, -0.000000000000000000 ) ) ;
#57 = PRESENTATION_LAYER_ASSIGNMENT (  '', '', ( #19 ) ) ;
#58 = LINE ( 'NONE', #178, #174 ) ;
#59 = DIMENSIONAL_EXPONENTS ( 1.000000000000000000, 0.000000000000000000, 0.000000000000000000, 0.000000000000000000, 0.000000000000000000, 0.000000000000000000, 0.000000000000000000 ) ;
#60 = VERTEX_POINT ( 'NONE', #222 ) ;
#61 = DIRECTION ( 'NONE',  ( -1.000000000000000000, -0.000000000000000000, -0.000000000000000000 ) ) ;
#62 = LINE ( 'NONE', #46, #70 ) ;
#63 = CARTESIAN_POINT ( 'NONE',  ( 23.50000000000000000, 0.000000000000000000, 0.000000000000000000 ) ) ;
#64 = AXIS2_PLACEMENT_3D ( 'NONE', #181, #216, #88 ) ;
#65 = MECHANICAL_DESIGN_GEOMETRIC_PRESENTATION_REPRESENTATION (  '', ( #19 ), #206 ) ;
#66 = DIRECTION ( 'NONE',  ( -1.000000000000000000, -0.000000000000000000, -0.000000000000000000 ) ) ;
#67 = ADVANCED_BREP_SHAPE_REPRESENTATION ( 'WCP-1263 Rev1', ( #137, #113 ), #135 ) ;
#68 = CYLINDRICAL_SURFACE ( 'NONE', #125, 0.5625000000000000000 ) ;
#69 = PRODUCT_DEFINITION_CONTEXT ( 'detailed design', #9, 'design' ) ;
#70 = VECTOR ( 'NONE', #209, 39.37007874015748143 ) ;
#71 = FILL_AREA_STYLE ('',( #18 ) ) ;
#72 = PRODUCT_DEFINITION_SHAPE ( 'NONE', 'NONE',  #55 ) ;
#73 = APPLICATION_CONTEXT ( 'automotive_design' ) ;
#74 = ORIENTED_EDGE ( 'NONE', *, *, #92, .T. ) ;
#75 =( CONVERSION_BASED_UNIT ( 'INCH', #124 ) LENGTH_UNIT ( ) NAMED_UNIT ( #220 ) );
#76 = ORIENTED_EDGE ( 'NONE', *, *, #29, .F. ) ;
#77 = ADVANCED_FACE ( 'NONE', ( #119 ), #155, .F. ) ;
#78 = ORIENTED_EDGE ( 'NONE', *, *, #16, .F. ) ;
#79 = ORIENTED_EDGE ( 'NONE', *, *, #7, .T. ) ;
#80 = EDGE_LOOP ( 'NONE', ( #166, #41 ) ) ;
#81 = ADVANCED_FACE ( 'NONE', ( #151 ), #53, .T. ) ;
#82 = CARTESIAN_POINT ( 'NONE',  ( -23.50000000000000000, 0.000000000000000000, 0.000000000000000000 ) ) ;
#83 = LINE ( 'NONE', #1, #106 ) ;
#84 = ADVANCED_FACE ( 'NONE', ( #13 ), #153, .T. ) ;
#85 = SURFACE_STYLE_USAGE ( .BOTH. , #120 ) ;
#86 = STYLED_ITEM ( 'NONE', ( #11 ), #137 ) ;
#87 = DIRECTION ( 'NONE',  ( 0.000000000000000000, 0.000000000000000000, -1.000000000000000000 ) ) ;
#88 = DIRECTION ( 'NONE',  ( 0.000000000000000000, 0.000000000000000000, -1.000000000000000000 ) ) ;
#89 = ADVANCED_FACE ( 'NONE', ( #197, #15 ), #101, .T. ) ;
#90 = CARTESIAN_POINT ( 'NONE',  ( 23.50000000000000000, 7.654042494670957853E-17, -0.6250000000000000000 ) ) ;
#91 =( NAMED_UNIT ( * ) PLANE_ANGLE_UNIT ( ) SI_UNIT ( $, .RADIAN. ) );
#92 = EDGE_CURVE ( 'NONE', #45, #193, #161, .T. ) ;
#93 = ORIENTED_EDGE ( 'NONE', *, *, #121, .T. ) ;
#94 = AXIS2_PLACEMENT_3D ( 'NONE', #97, #66, #32 ) ;
#95 = AXIS2_PLACEMENT_3D ( 'NONE', #34, #3, #139 ) ;
#96 = ORIENTED_EDGE ( 'NONE', *, *, #171, .T. ) ;
#97 = CARTESIAN_POINT ( 'NONE',  ( 23.50000000000000000, 0.000000000000000000, 0.000000000000000000 ) ) ;
#98 = FILL_AREA_STYLE ('',( #182 ) ) ;
#99 = DIRECTION ( 'NONE',  ( 0.000000000000000000, 0.000000000000000000, 1.000000000000000000 ) ) ;
#100 = DIRECTION ( 'NONE',  ( 0.000000000000000000, 0.000000000000000000, 1.000000000000000000 ) ) ;
#101 = PLANE ( 'NONE',  #207 ) ;
#102 = ADVANCED_FACE ( 'NONE', ( #198 ), #68, .F. ) ;
#103 = UNCERTAINTY_MEASURE_WITH_UNIT (LENGTH_MEASURE( 1.000000000000000082E-05 ), #140, 'distance_accuracy_value', 'NONE');
#104 = APPLICATION_PROTOCOL_DEFINITION ( 'draft international standard', 'automotive_design', 1998, #73 ) ;
#105 = AXIS2_PLACEMENT_3D ( 'NONE', #118, #128, #28 ) ;
#106 = VECTOR ( 'NONE', #2, 39.37007874015748143 ) ;
#107 = SURFACE_SIDE_STYLE ('',( #138 ) ) ;
#108 = CARTESIAN_POINT ( 'NONE',  ( -23.50000000000000000, 6.888638245203861944E-17, -0.5625000000000000000 ) ) ;
#109 = DIRECTION ( 'NONE',  ( 1.000000000000000000, 0.000000000000000000, 0.000000000000000000 ) ) ;
#110 = ORIENTED_EDGE ( 'NONE', *, *, #171, .F. ) ;
#111 = ORIENTED_EDGE ( 'NONE', *, *, #16, .T. ) ;
#112 = PRESENTATION_LAYER_ASSIGNMENT (  '', '', ( #86 ) ) ;
#113 = AXIS2_PLACEMENT_3D ( 'NONE', #141, #39, #109 ) ;
#114 = ORIENTED_EDGE ( 'NONE', *, *, #7, .F. ) ;
#115 = CARTESIAN_POINT ( 'NONE',  ( -23.50000000000000000, 0.000000000000000000, 0.5625000000000000000 ) ) ;
#116 = ORIENTED_EDGE ( 'NONE', *, *, #217, .F. ) ;
#117 = UNCERTAINTY_MEASURE_WITH_UNIT (LENGTH_MEASURE( 1.000000000000000082E-05 ), #75, 'distance_accuracy_value', 'NONE');
#118 = CARTESIAN_POINT ( 'NONE',  ( 23.50000000000000000, 0.000000000000000000, 0.000000000000000000 ) ) ;
#119 = FACE_OUTER_BOUND ( 'NONE', #129, .T. ) ;
#120 = SURFACE_SIDE_STYLE ('',( #219 ) ) ;
#121 = EDGE_CURVE ( 'NONE', #179, #6, #196, .T. ) ;
#122 =( CONVERSION_BASED_UNIT ( 'INCH', #183 ) LENGTH_UNIT ( ) NAMED_UNIT ( #59 ) );
#123 = DIRECTION ( 'NONE',  ( -1.000000000000000000, -0.000000000000000000, -0.000000000000000000 ) ) ;
#124 = LENGTH_MEASURE_WITH_UNIT ( LENGTH_MEASURE( 0.02539999999999999897 ), #158 );
#125 = AXIS2_PLACEMENT_3D ( 'NONE', #12, #49, #99 ) ;
#126 = CARTESIAN_POINT ( 'NONE',  ( -23.50000000000000000, 7.654042494670957853E-17, -0.6250000000000000000 ) ) ;
#127 = CIRCLE ( 'NONE', #95, 0.6250000000000000000 ) ;
#128 = DIRECTION ( 'NONE',  ( 1.000000000000000000, 0.000000000000000000, 0.000000000000000000 ) ) ;
#129 = EDGE_LOOP ( 'NONE', ( #27, #111, #114, #10 ) ) ;
#130 = EDGE_CURVE ( 'NONE', #148, #146, #186, .T. ) ;
#131 = EDGE_LOOP ( 'NONE', ( #162, #116 ) ) ;
#132 = ORIENTED_EDGE ( 'NONE', *, *, #217, .T. ) ;
#133 = CARTESIAN_POINT ( 'NONE',  ( 23.50000000000000000, 0.000000000000000000, 0.000000000000000000 ) ) ;
#134 = AXIS2_PLACEMENT_3D ( 'NONE', #50, #173, #87 ) ;
#135 =( GEOMETRIC_REPRESENTATION_CONTEXT ( 3 ) GLOBAL_UNCERTAINTY_ASSIGNED_CONTEXT ( ( #103 ) ) GLOBAL_UNIT_ASSIGNED_CONTEXT ( ( #140, #20, #37 ) ) REPRESENTATION_CONTEXT ( 'NONE', 'WORKASPACE' ) );
#136 = DIRECTION ( 'NONE',  ( 0.000000000000000000, 0.000000000000000000, 1.000000000000000000 ) ) ;
#137 = MANIFOLD_SOLID_BREP ( 'Extrude-Thin2', #38 ) ;
#138 = SURFACE_STYLE_FILL_AREA ( #71 ) ;
#139 = DIRECTION ( 'NONE',  ( 0.000000000000000000, 0.000000000000000000, -1.000000000000000000 ) ) ;
#140 =( CONVERSION_BASED_UNIT ( 'INCH', #188 ) LENGTH_UNIT ( ) NAMED_UNIT ( #191 ) );
#141 = CARTESIAN_POINT ( 'NONE',  ( 0.000000000000000000, 0.000000000000000000, 0.000000000000000000 ) ) ;
#142 = MECHANICAL_DESIGN_GEOMETRIC_PRESENTATION_REPRESENTATION (  '', ( #86 ), #5 ) ;
#143 = VECTOR ( 'NONE', #56, 39.37007874015748143 ) ;
#144 = EDGE_LOOP ( 'NONE', ( #23, #167 ) ) ;
#145 = ORIENTED_EDGE ( 'NONE', *, *, #159, .T. ) ;
#146 = VERTEX_POINT ( 'NONE', #202 ) ;
#147 = PRODUCT ( 'WCP-1263 Rev1', 'WCP-1263 Rev1', '', ( #54 ) ) ;
#148 = VERTEX_POINT ( 'NONE', #204 ) ;
#149 = DIRECTION ( 'NONE',  ( 0.000000000000000000, 0.000000000000000000, -1.000000000000000000 ) ) ;
#150 = DIRECTION ( 'NONE',  ( 1.000000000000000000, 0.000000000000000000, 0.000000000000000000 ) ) ;
#151 = FACE_OUTER_BOUND ( 'NONE', #213, .T. ) ;
#152 = AXIS2_PLACEMENT_3D ( 'NONE', #168, #170, #31 ) ;
#153 = CYLINDRICAL_SURFACE ( 'NONE', #35, 0.6250000000000000000 ) ;
#154 = CARTESIAN_POINT ( 'NONE',  ( 23.50000000000000000, 0.000000000000000000, 0.000000000000000000 ) ) ;
#155 = CYLINDRICAL_SURFACE ( 'NONE', #94, 0.5625000000000000000 ) ;
#156 = PRESENTATION_STYLE_ASSIGNMENT (( #175 ) ) ;
#157 = CARTESIAN_POINT ( 'NONE',  ( 23.50000000000000000, 0.000000000000000000, 0.000000000000000000 ) ) ;
#158 =( LENGTH_UNIT ( ) NAMED_UNIT ( * ) SI_UNIT ( $, .METRE. ) );
#159 = EDGE_CURVE ( 'NONE', #60, #45, #83, .T. ) ;
#160 =( LENGTH_UNIT ( ) NAMED_UNIT ( * ) SI_UNIT ( $, .METRE. ) );
#161 = CIRCLE ( 'NONE', #64, 0.6250000000000000000 ) ;
#162 = ORIENTED_EDGE ( 'NONE', *, *, #92, .F. ) ;
#163 = PRODUCT_RELATED_PRODUCT_CATEGORY ( 'part', '', ( #147 ) ) ;
#164 = ORIENTED_EDGE ( 'NONE', *, *, #208, .F. ) ;
#165 = CIRCLE ( 'NONE', #169, 0.5625000000000000000 ) ;
#166 = ORIENTED_EDGE ( 'NONE', *, *, #208, .T. ) ;
#167 = ORIENTED_EDGE ( 'NONE', *, *, #21, .F. ) ;
#168 = CARTESIAN_POINT ( 'NONE',  ( -23.50000000000000000, 0.000000000000000000, 0.000000000000000000 ) ) ;
#169 = AXIS2_PLACEMENT_3D ( 'NONE', #82, #195, #149 ) ;
#170 = DIRECTION ( 'NONE',  ( 1.000000000000000000, 0.000000000000000000, 0.000000000000000000 ) ) ;
#171 = EDGE_CURVE ( 'NONE', #194, #193, #184, .T. ) ;
#172 = DIRECTION ( 'NONE',  ( -1.000000000000000000, -0.000000000000000000, -0.000000000000000000 ) ) ;
#173 = DIRECTION ( 'NONE',  ( 1.000000000000000000, 0.000000000000000000, 0.000000000000000000 ) ) ;
#174 = VECTOR ( 'NONE', #61, 39.37007874015748143 ) ;
#175 = SURFACE_STYLE_USAGE ( .BOTH. , #107 ) ;
#176 = EDGE_LOOP ( 'NONE', ( #79, #93 ) ) ;
#177 = COLOUR_RGB ( '',0.2980392156862745057, 0.2980392156862745057, 0.2980392156862745057 ) ;
#178 = CARTESIAN_POINT ( 'NONE',  ( 23.50000000000000000, 0.000000000000000000, 0.5625000000000000000 ) ) ;
#179 = VERTEX_POINT ( 'NONE', #108 ) ;
#180 = DIRECTION ( 'NONE',  ( 0.000000000000000000, 0.000000000000000000, -1.000000000000000000 ) ) ;
#181 = CARTESIAN_POINT ( 'NONE',  ( -23.50000000000000000, 0.000000000000000000, 0.000000000000000000 ) ) ;
#182 = FILL_AREA_STYLE_COLOUR ( '', #177 ) ;
#183 = LENGTH_MEASURE_WITH_UNIT ( LENGTH_MEASURE( 0.02539999999999999897 ), #199 );
#184 = LINE ( 'NONE', #223, #143 ) ;
#185 = DIRECTION ( 'NONE',  ( 0.000000000000000000, 0.000000000000000000, -1.000000000000000000 ) ) ;
#186 = CIRCLE ( 'NONE', #24, 0.5625000000000000000 ) ;
#187 = AXIS2_PLACEMENT_3D ( 'NONE', #157, #203, #185 ) ;
#188 = LENGTH_MEASURE_WITH_UNIT ( LENGTH_MEASURE( 0.02539999999999999897 ), #160 );
#189 =( NAMED_UNIT ( * ) SI_UNIT ( $, .STERADIAN. ) SOLID_ANGLE_UNIT ( ) );
#190 = CARTESIAN_POINT ( 'NONE',  ( -23.50000000000000000, 0.000000000000000000, 0.6250000000000000000 ) ) ;
#191 = DIMENSIONAL_EXPONENTS ( 1.000000000000000000, 0.000000000000000000, 0.000000000000000000, 0.000000000000000000, 0.000000000000000000, 0.000000000000000000, 0.000000000000000000 ) ;
#192 = APPLICATION_PROTOCOL_DEFINITION ( 'draft international standard', 'automotive_design', 1998, #9 ) ;
#193 = VERTEX_POINT ( 'NONE', #126 ) ;
#194 = VERTEX_POINT ( 'NONE', #90 ) ;
#195 = DIRECTION ( 'NONE',  ( 1.000000000000000000, 0.000000000000000000, 0.000000000000000000 ) ) ;
#196 = CIRCLE ( 'NONE', #152, 0.5625000000000000000 ) ;
#197 = FACE_OUTER_BOUND ( 'NONE', #80, .T. ) ;
#198 = FACE_OUTER_BOUND ( 'NONE', #26, .T. ) ;
#199 =( LENGTH_UNIT ( ) NAMED_UNIT ( * ) SI_UNIT ( $, .METRE. ) );
#200 = CIRCLE ( 'NONE', #105, 0.5625000000000000000 ) ;
#201 = PLANE ( 'NONE',  #134 ) ;
#202 = CARTESIAN_POINT ( 'NONE',  ( 23.50000000000000000, 6.888638245203861944E-17, -0.5625000000000000000 ) ) ;
#203 = DIRECTION ( 'NONE',  ( 1.000000000000000000, 0.000000000000000000, 0.000000000000000000 ) ) ;
#204 = CARTESIAN_POINT ( 'NONE',  ( 23.50000000000000000, 0.000000000000000000, 0.5625000000000000000 ) ) ;
#205 = AXIS2_PLACEMENT_3D ( 'NONE', #215, #123, #136 ) ;
#206 =( GEOMETRIC_REPRESENTATION_CONTEXT ( 3 ) GLOBAL_UNCERTAINTY_ASSIGNED_CONTEXT ( ( #117 ) ) GLOBAL_UNIT_ASSIGNED_CONTEXT ( ( #75, #91, #189 ) ) REPRESENTATION_CONTEXT ( 'NONE', 'WORKASPACE' ) );
#207 = AXIS2_PLACEMENT_3D ( 'NONE', #63, #150, #30 ) ;
#208 = EDGE_CURVE ( 'NONE', #60, #194, #218, .T. ) ;
#209 = DIRECTION ( 'NONE',  ( -1.000000000000000000, -0.000000000000000000, -0.000000000000000000 ) ) ;
#210 = ORIENTED_EDGE ( 'NONE', *, *, #42, .T. ) ;
#211 = CARTESIAN_POINT ( 'NONE',  ( 23.50000000000000000, 0.000000000000000000, 0.000000000000000000 ) ) ;
#212 = ORIENTED_EDGE ( 'NONE', *, *, #159, .F. ) ;
#213 = EDGE_LOOP ( 'NONE', ( #76, #96, #132, #212 ) ) ;
#214 = DIRECTION ( 'NONE',  ( 1.000000000000000000, 0.000000000000000000, 0.000000000000000000 ) ) ;
#215 = CARTESIAN_POINT ( 'NONE',  ( 23.50000000000000000, 0.000000000000000000, 0.000000000000000000 ) ) ;
#216 = DIRECTION ( 'NONE',  ( 1.000000000000000000, 0.000000000000000000, 0.000000000000000000 ) ) ;
#217 = EDGE_CURVE ( 'NONE', #193, #45, #127, .T. ) ;
#218 = CIRCLE ( 'NONE', #187, 0.6250000000000000000 ) ;
#219 = SURFACE_STYLE_FILL_AREA ( #98 ) ;
#220 = DIMENSIONAL_EXPONENTS ( 1.000000000000000000, 0.000000000000000000, 0.000000000000000000, 0.000000000000000000, 0.000000000000000000, 0.000000000000000000, 0.000000000000000000 ) ;
#221 = DIRECTION ( 'NONE',  ( 1.000000000000000000, 0.000000000000000000, 0.000000000000000000 ) ) ;
#222 = CARTESIAN_POINT ( 'NONE',  ( 23.50000000000000000, 0.000000000000000000, 0.6250000000000000000 ) ) ;
#223 = CARTESIAN_POINT ( 'NONE',  ( 23.50000000000000000, 7.654042494670957853E-17, -0.6250000000000000000 ) ) ;
ENDSEC;
END-ISO-10303-21;
