ISO-10303-21;
HEADER;
FILE_DESCRIPTION (( 'STEP AP214' ),
    '1' );
FILE_NAME ('WCP-1262 Rev1.step',
    '2024-01-04T23:47:43',
    ( '' ),
    ( '' ),
    'SwSTEP 2.0',
    'SolidWorks 2022',
    '' );
FILE_SCHEMA (( 'AUTOMOTIVE_DESIGN' ));
ENDSEC;

DATA;
#1 = ORIENTED_EDGE ( 'NONE', *, *, #96, .F. ) ;
#2 = SHAPE_DEFINITION_REPRESENTATION ( #193, #211 ) ;
#3 = ADVANCED_FACE ( 'NONE', ( #194, #195 ), #77, .T. ) ;
#4 = PRODUCT_CONTEXT ( 'NONE', #222, 'mechanical' ) ;
#5 = CARTESIAN_POINT ( 'NONE',  ( 23.50000000000000000, 0.000000000000000000, 0.000000000000000000 ) ) ;
#6 = DIRECTION ( 'NONE',  ( 0.000000000000000000, 0.000000000000000000, -1.000000000000000000 ) ) ;
#7 = CARTESIAN_POINT ( 'NONE',  ( 23.50000000000000000, 0.000000000000000000, 0.000000000000000000 ) ) ;
#8 = DIRECTION ( 'NONE',  ( 1.000000000000000000, 0.000000000000000000, 0.000000000000000000 ) ) ;
#9 =( CONVERSION_BASED_UNIT ( 'INCH', #13 ) LENGTH_UNIT ( ) NAMED_UNIT ( #64 ) );
#10 = CIRCLE ( 'NONE', #135, 0.4375000000000000000 ) ;
#11 = FACE_OUTER_BOUND ( 'NONE', #84, .T. ) ;
#12 = DIRECTION ( 'NONE',  ( 0.000000000000000000, 0.000000000000000000, -1.000000000000000000 ) ) ;
#13 = LENGTH_MEASURE_WITH_UNIT ( LENGTH_MEASURE( 0.02539999999999999897 ), #201 );
#14 = DIRECTION ( 'NONE',  ( 0.000000000000000000, 0.000000000000000000, 1.000000000000000000 ) ) ;
#15 = ORIENTED_EDGE ( 'NONE', *, *, #87, .F. ) ;
#16 = ORIENTED_EDGE ( 'NONE', *, *, #28, .F. ) ;
#17 = AXIS2_PLACEMENT_3D ( 'NONE', #155, #14, #69 ) ;
#18 = VERTEX_POINT ( 'NONE', #90 ) ;
#19 = VERTEX_POINT ( 'NONE', #156 ) ;
#20 = SURFACE_SIDE_STYLE ('',( #158 ) ) ;
#21 = FACE_OUTER_BOUND ( 'NONE', #54, .T. ) ;
#22 = DIRECTION ( 'NONE',  ( 0.000000000000000000, 0.000000000000000000, -1.000000000000000000 ) ) ;
#23 = DIRECTION ( 'NONE',  ( 0.000000000000000000, 0.000000000000000000, 1.000000000000000000 ) ) ;
#24 = CIRCLE ( 'NONE', #35, 0.4375000000000000000 ) ;
#25 = CARTESIAN_POINT ( 'NONE',  ( -23.50000000000000000, 5.357829746269670127E-17, -0.4375000000000000000 ) ) ;
#26 = CARTESIAN_POINT ( 'NONE',  ( 23.50000000000000000, 0.000000000000000000, 0.5000000000000000000 ) ) ;
#27 = DIRECTION ( 'NONE',  ( 0.000000000000000000, 0.000000000000000000, 1.000000000000000000 ) ) ;
#28 = EDGE_CURVE ( 'NONE', #19, #18, #221, .T. ) ;
#29 = DIRECTION ( 'NONE',  ( 0.000000000000000000, 0.000000000000000000, -1.000000000000000000 ) ) ;
#30 = ORIENTED_EDGE ( 'NONE', *, *, #157, .F. ) ;
#31 = ADVANCED_FACE ( 'NONE', ( #108 ), #139, .F. ) ;
#32 = ORIENTED_EDGE ( 'NONE', *, *, #63, .F. ) ;
#33 = PRODUCT_DEFINITION ( 'UNKNOWN', '', #151, #141 ) ;
#34 = ORIENTED_EDGE ( 'NONE', *, *, #51, .T. ) ;
#35 = AXIS2_PLACEMENT_3D ( 'NONE', #50, #65, #29 ) ;
#36 = FILL_AREA_STYLE ('',( #192 ) ) ;
#37 = DIRECTION ( 'NONE',  ( 0.000000000000000000, 0.000000000000000000, -1.000000000000000000 ) ) ;
#38 = SURFACE_STYLE_USAGE ( .BOTH. , #20 ) ;
#39 = VECTOR ( 'NONE', #198, 39.37007874015748143 ) ;
#40 = PRESENTATION_LAYER_ASSIGNMENT (  '', '', ( #196 ) ) ;
#41 = CARTESIAN_POINT ( 'NONE',  ( 23.50000000000000000, 0.000000000000000000, 0.000000000000000000 ) ) ;
#42 = CARTESIAN_POINT ( 'NONE',  ( 23.50000000000000000, 5.357829746269670127E-17, -0.4375000000000000000 ) ) ;
#43 = EDGE_CURVE ( 'NONE', #85, #121, #140, .T. ) ;
#44 = AXIS2_PLACEMENT_3D ( 'NONE', #119, #89, #6 ) ;
#45 =( GEOMETRIC_REPRESENTATION_CONTEXT ( 3 ) GLOBAL_UNCERTAINTY_ASSIGNED_CONTEXT ( ( #219 ) ) GLOBAL_UNIT_ASSIGNED_CONTEXT ( ( #100, #223, #154 ) ) REPRESENTATION_CONTEXT ( 'NONE', 'WORKASPACE' ) );
#46 = DIMENSIONAL_EXPONENTS ( 1.000000000000000000, 0.000000000000000000, 0.000000000000000000, 0.000000000000000000, 0.000000000000000000, 0.000000000000000000, 0.000000000000000000 ) ;
#47 = ORIENTED_EDGE ( 'NONE', *, *, #87, .T. ) ;
#48 = DIRECTION ( 'NONE',  ( -1.000000000000000000, -0.000000000000000000, -0.000000000000000000 ) ) ;
#49 = UNCERTAINTY_MEASURE_WITH_UNIT (LENGTH_MEASURE( 1.000000000000000082E-05 ), #9, 'distance_accuracy_value', 'NONE');
#50 = CARTESIAN_POINT ( 'NONE',  ( 23.50000000000000000, 0.000000000000000000, 0.000000000000000000 ) ) ;
#51 = EDGE_CURVE ( 'NONE', #102, #212, #180, .T. ) ;
#52 = AXIS2_PLACEMENT_3D ( 'NONE', #182, #218, #167 ) ;
#53 = ORIENTED_EDGE ( 'NONE', *, *, #134, .F. ) ;
#54 = EDGE_LOOP ( 'NONE', ( #59, #189, #91, #152 ) ) ;
#55 = AXIS2_PLACEMENT_3D ( 'NONE', #67, #147, #95 ) ;
#56 = VECTOR ( 'NONE', #166, 39.37007874015748143 ) ;
#57 = CARTESIAN_POINT ( 'NONE',  ( -23.50000000000000000, 0.000000000000000000, 0.4375000000000000000 ) ) ;
#58 = VERTEX_POINT ( 'NONE', #57 ) ;
#59 = ORIENTED_EDGE ( 'NONE', *, *, #96, .T. ) ;
#60 = PRODUCT_RELATED_PRODUCT_CATEGORY ( 'part', '', ( #175 ) ) ;
#61 =( CONVERSION_BASED_UNIT ( 'INCH', #107 ) LENGTH_UNIT ( ) NAMED_UNIT ( #46 ) );
#62 = MANIFOLD_SOLID_BREP ( 'Extrude-Thin2', #137 ) ;
#63 = EDGE_CURVE ( 'NONE', #102, #81, #105, .T. ) ;
#64 = DIMENSIONAL_EXPONENTS ( 1.000000000000000000, 0.000000000000000000, 0.000000000000000000, 0.000000000000000000, 0.000000000000000000, 0.000000000000000000, 0.000000000000000000 ) ;
#65 = DIRECTION ( 'NONE',  ( 1.000000000000000000, 0.000000000000000000, 0.000000000000000000 ) ) ;
#66 = EDGE_LOOP ( 'NONE', ( #103, #120 ) ) ;
#67 = CARTESIAN_POINT ( 'NONE',  ( 23.50000000000000000, 0.000000000000000000, 0.000000000000000000 ) ) ;
#68 = DIRECTION ( 'NONE',  ( -1.000000000000000000, -0.000000000000000000, -0.000000000000000000 ) ) ;
#69 = DIRECTION ( 'NONE',  ( 1.000000000000000000, 0.000000000000000000, 0.000000000000000000 ) ) ;
#70 = LENGTH_MEASURE_WITH_UNIT ( LENGTH_MEASURE( 0.02539999999999999897 ), #210 );
#71 = VECTOR ( 'NONE', #174, 39.37007874015748143 ) ;
#72 = ADVANCED_FACE ( 'NONE', ( #21 ), #213, .F. ) ;
#73 = DIRECTION ( 'NONE',  ( 1.000000000000000000, 0.000000000000000000, 0.000000000000000000 ) ) ;
#74 = CARTESIAN_POINT ( 'NONE',  ( 23.50000000000000000, 0.000000000000000000, 0.000000000000000000 ) ) ;
#75 =( LENGTH_UNIT ( ) NAMED_UNIT ( * ) SI_UNIT ( $, .METRE. ) );
#76 = MECHANICAL_DESIGN_GEOMETRIC_PRESENTATION_REPRESENTATION (  '', ( #196 ), #45 ) ;
#77 = PLANE ( 'NONE',  #122 ) ;
#78 = LINE ( 'NONE', #26, #199 ) ;
#79 = DIRECTION ( 'NONE',  ( 0.000000000000000000, 0.000000000000000000, 1.000000000000000000 ) ) ;
#80 = LINE ( 'NONE', #203, #39 ) ;
#81 = VERTEX_POINT ( 'NONE', #25 ) ;
#82 = ORIENTED_EDGE ( 'NONE', *, *, #188, .T. ) ;
#83 = AXIS2_PLACEMENT_3D ( 'NONE', #204, #183, #27 ) ;
#84 = EDGE_LOOP ( 'NONE', ( #202, #149, #47, #178 ) ) ;
#85 = VERTEX_POINT ( 'NONE', #114 ) ;
#86 = CARTESIAN_POINT ( 'NONE',  ( 23.50000000000000000, 0.000000000000000000, 0.000000000000000000 ) ) ;
#87 = EDGE_CURVE ( 'NONE', #85, #18, #78, .T. ) ;
#88 = AXIS2_PLACEMENT_3D ( 'NONE', #181, #48, #79 ) ;
#89 = DIRECTION ( 'NONE',  ( 1.000000000000000000, 0.000000000000000000, 0.000000000000000000 ) ) ;
#90 = CARTESIAN_POINT ( 'NONE',  ( -23.50000000000000000, 0.000000000000000000, 0.5000000000000000000 ) ) ;
#91 = ORIENTED_EDGE ( 'NONE', *, *, #179, .F. ) ;
#92 = EDGE_LOOP ( 'NONE', ( #1, #146 ) ) ;
#93 = DIMENSIONAL_EXPONENTS ( 1.000000000000000000, 0.000000000000000000, 0.000000000000000000, 0.000000000000000000, 0.000000000000000000, 0.000000000000000000, 0.000000000000000000 ) ;
#94 = CYLINDRICAL_SURFACE ( 'NONE', #88, 0.5000000000000000000 ) ;
#95 = DIRECTION ( 'NONE',  ( 0.000000000000000000, 0.000000000000000000, -1.000000000000000000 ) ) ;
#96 = EDGE_CURVE ( 'NONE', #212, #102, #24, .T. ) ;
#97 = CARTESIAN_POINT ( 'NONE',  ( -23.50000000000000000, 0.000000000000000000, 0.000000000000000000 ) ) ;
#98 = FACE_BOUND ( 'NONE', #66, .T. ) ;
#99 = DIRECTION ( 'NONE',  ( 0.000000000000000000, 0.000000000000000000, -1.000000000000000000 ) ) ;
#100 =( CONVERSION_BASED_UNIT ( 'INCH', #70 ) LENGTH_UNIT ( ) NAMED_UNIT ( #93 ) );
#101 = AXIS2_PLACEMENT_3D ( 'NONE', #5, #172, #22 ) ;
#102 = VERTEX_POINT ( 'NONE', #115 ) ;
#103 = ORIENTED_EDGE ( 'NONE', *, *, #179, .T. ) ;
#104 = PRESENTATION_STYLE_ASSIGNMENT (( #38 ) ) ;
#105 = LINE ( 'NONE', #42, #71 ) ;
#106 = AXIS2_PLACEMENT_3D ( 'NONE', #215, #142, #99 ) ;
#107 = LENGTH_MEASURE_WITH_UNIT ( LENGTH_MEASURE( 0.02539999999999999897 ), #75 );
#108 = FACE_OUTER_BOUND ( 'NONE', #170, .T. ) ;
#109 = EDGE_LOOP ( 'NONE', ( #186, #82 ) ) ;
#110 = DIRECTION ( 'NONE',  ( -1.000000000000000000, -0.000000000000000000, -0.000000000000000000 ) ) ;
#111 =( NAMED_UNIT ( * ) PLANE_ANGLE_UNIT ( ) SI_UNIT ( $, .RADIAN. ) );
#112 = FACE_OUTER_BOUND ( 'NONE', #159, .T. ) ;
#113 = ADVANCED_FACE ( 'NONE', ( #11 ), #94, .T. ) ;
#114 = CARTESIAN_POINT ( 'NONE',  ( 23.50000000000000000, 0.000000000000000000, 0.5000000000000000000 ) ) ;
#115 = CARTESIAN_POINT ( 'NONE',  ( 23.50000000000000000, 5.357829746269670127E-17, -0.4375000000000000000 ) ) ;
#116 = FILL_AREA_STYLE ('',( #133 ) ) ;
#117 = ORIENTED_EDGE ( 'NONE', *, *, #188, .F. ) ;
#118 = SURFACE_STYLE_USAGE ( .BOTH. , #207 ) ;
#119 = CARTESIAN_POINT ( 'NONE',  ( -23.50000000000000000, 0.000000000000000000, 0.000000000000000000 ) ) ;
#120 = ORIENTED_EDGE ( 'NONE', *, *, #134, .T. ) ;
#121 = VERTEX_POINT ( 'NONE', #145 ) ;
#122 = AXIS2_PLACEMENT_3D ( 'NONE', #74, #162, #138 ) ;
#123 = ORIENTED_EDGE ( 'NONE', *, *, #28, .T. ) ;
#124 =( NAMED_UNIT ( * ) PLANE_ANGLE_UNIT ( ) SI_UNIT ( $, .RADIAN. ) );
#125 = LINE ( 'NONE', #163, #56 ) ;
#126 = STYLED_ITEM ( 'NONE', ( #104 ), #62 ) ;
#127 = EDGE_CURVE ( 'NONE', #212, #58, #125, .T. ) ;
#128 = FACE_OUTER_BOUND ( 'NONE', #136, .T. ) ;
#129 = DIRECTION ( 'NONE',  ( 0.000000000000000000, 0.000000000000000000, -1.000000000000000000 ) ) ;
#130 = APPLICATION_CONTEXT ( 'automotive_design' ) ;
#131 = CARTESIAN_POINT ( 'NONE',  ( -23.50000000000000000, 0.000000000000000000, 0.000000000000000000 ) ) ;
#132 = AXIS2_PLACEMENT_3D ( 'NONE', #41, #110, #23 ) ;
#133 = FILL_AREA_STYLE_COLOUR ( '', #161 ) ;
#134 = EDGE_CURVE ( 'NONE', #81, #58, #160, .T. ) ;
#135 = AXIS2_PLACEMENT_3D ( 'NONE', #131, #216, #12 ) ;
#136 = EDGE_LOOP ( 'NONE', ( #117, #206, #123, #15 ) ) ;
#137 = CLOSED_SHELL ( 'NONE', ( #72, #220, #3, #177, #113, #31 ) ) ;
#138 = DIRECTION ( 'NONE',  ( 0.000000000000000000, 0.000000000000000000, -1.000000000000000000 ) ) ;
#139 = CYLINDRICAL_SURFACE ( 'NONE', #205, 0.4375000000000000000 ) ;
#140 = CIRCLE ( 'NONE', #101, 0.5000000000000000000 ) ;
#141 = PRODUCT_DEFINITION_CONTEXT ( 'detailed design', #130, 'design' ) ;
#142 = DIRECTION ( 'NONE',  ( 1.000000000000000000, 0.000000000000000000, 0.000000000000000000 ) ) ;
#143 = UNCERTAINTY_MEASURE_WITH_UNIT (LENGTH_MEASURE( 1.000000000000000082E-05 ), #61, 'distance_accuracy_value', 'NONE');
#144 = APPLICATION_PROTOCOL_DEFINITION ( 'draft international standard', 'automotive_design', 1998, #222 ) ;
#145 = CARTESIAN_POINT ( 'NONE',  ( 23.50000000000000000, 6.123233995736766036E-17, -0.5000000000000000000 ) ) ;
#146 = ORIENTED_EDGE ( 'NONE', *, *, #51, .F. ) ;
#147 = DIRECTION ( 'NONE',  ( 1.000000000000000000, 0.000000000000000000, 0.000000000000000000 ) ) ;
#148 = AXIS2_PLACEMENT_3D ( 'NONE', #97, #8, #129 ) ;
#149 = ORIENTED_EDGE ( 'NONE', *, *, #43, .F. ) ;
#150 = COLOUR_RGB ( '',0.2980392156862745057, 0.2980392156862745057, 0.2980392156862745057 ) ;
#151 = PRODUCT_DEFINITION_FORMATION_WITH_SPECIFIED_SOURCE ( 'ANY', '', #175, .NOT_KNOWN. ) ;
#152 = ORIENTED_EDGE ( 'NONE', *, *, #127, .F. ) ;
#153 = ORIENTED_EDGE ( 'NONE', *, *, #127, .T. ) ;
#154 =( NAMED_UNIT ( * ) SI_UNIT ( $, .STERADIAN. ) SOLID_ANGLE_UNIT ( ) );
#155 = CARTESIAN_POINT ( 'NONE',  ( 0.000000000000000000, 0.000000000000000000, 0.000000000000000000 ) ) ;
#156 = CARTESIAN_POINT ( 'NONE',  ( -23.50000000000000000, 6.123233995736766036E-17, -0.5000000000000000000 ) ) ;
#157 = EDGE_CURVE ( 'NONE', #18, #19, #190, .T. ) ;
#158 = SURFACE_STYLE_FILL_AREA ( #36 ) ;
#159 = EDGE_LOOP ( 'NONE', ( #30, #16 ) ) ;
#160 = CIRCLE ( 'NONE', #52, 0.4375000000000000000 ) ;
#161 = COLOUR_RGB ( '',0.2980392156862745057, 0.2980392156862745057, 0.2980392156862745057 ) ;
#162 = DIRECTION ( 'NONE',  ( 1.000000000000000000, 0.000000000000000000, 0.000000000000000000 ) ) ;
#163 = CARTESIAN_POINT ( 'NONE',  ( 23.50000000000000000, 0.000000000000000000, 0.4375000000000000000 ) ) ;
#164 = CIRCLE ( 'NONE', #55, 0.5000000000000000000 ) ;
#165 = CARTESIAN_POINT ( 'NONE',  ( 23.50000000000000000, 0.000000000000000000, 0.4375000000000000000 ) ) ;
#166 = DIRECTION ( 'NONE',  ( -1.000000000000000000, -0.000000000000000000, -0.000000000000000000 ) ) ;
#167 = DIRECTION ( 'NONE',  ( 0.000000000000000000, 0.000000000000000000, -1.000000000000000000 ) ) ;
#168 = PRESENTATION_LAYER_ASSIGNMENT (  '', '', ( #126 ) ) ;
#169 = MECHANICAL_DESIGN_GEOMETRIC_PRESENTATION_REPRESENTATION (  '', ( #126 ), #184 ) ;
#170 = EDGE_LOOP ( 'NONE', ( #32, #34, #153, #53 ) ) ;
#171 = PRESENTATION_STYLE_ASSIGNMENT (( #118 ) ) ;
#172 = DIRECTION ( 'NONE',  ( 1.000000000000000000, 0.000000000000000000, 0.000000000000000000 ) ) ;
#173 = SURFACE_STYLE_FILL_AREA ( #116 ) ;
#174 = DIRECTION ( 'NONE',  ( -1.000000000000000000, -0.000000000000000000, -0.000000000000000000 ) ) ;
#175 = PRODUCT ( 'WCP-1262 Rev1', 'WCP-1262 Rev1', '', ( #4 ) ) ;
#176 = AXIS2_PLACEMENT_3D ( 'NONE', #7, #73, #37 ) ;
#177 = ADVANCED_FACE ( 'NONE', ( #112, #98 ), #217, .F. ) ;
#178 = ORIENTED_EDGE ( 'NONE', *, *, #157, .T. ) ;
#179 = EDGE_CURVE ( 'NONE', #58, #81, #10, .T. ) ;
#180 = CIRCLE ( 'NONE', #176, 0.4375000000000000000 ) ;
#181 = CARTESIAN_POINT ( 'NONE',  ( 23.50000000000000000, 0.000000000000000000, 0.000000000000000000 ) ) ;
#182 = CARTESIAN_POINT ( 'NONE',  ( -23.50000000000000000, 0.000000000000000000, 0.000000000000000000 ) ) ;
#183 = DIRECTION ( 'NONE',  ( -1.000000000000000000, -0.000000000000000000, -0.000000000000000000 ) ) ;
#184 =( GEOMETRIC_REPRESENTATION_CONTEXT ( 3 ) GLOBAL_UNCERTAINTY_ASSIGNED_CONTEXT ( ( #143 ) ) GLOBAL_UNIT_ASSIGNED_CONTEXT ( ( #61, #124, #197 ) ) REPRESENTATION_CONTEXT ( 'NONE', 'WORKASPACE' ) );
#185 =( NAMED_UNIT ( * ) SI_UNIT ( $, .STERADIAN. ) SOLID_ANGLE_UNIT ( ) );
#186 = ORIENTED_EDGE ( 'NONE', *, *, #43, .T. ) ;
#187 = EDGE_CURVE ( 'NONE', #121, #19, #80, .T. ) ;
#188 = EDGE_CURVE ( 'NONE', #121, #85, #164, .T. ) ;
#189 = ORIENTED_EDGE ( 'NONE', *, *, #63, .T. ) ;
#190 = CIRCLE ( 'NONE', #148, 0.5000000000000000000 ) ;
#191 = APPLICATION_PROTOCOL_DEFINITION ( 'draft international standard', 'automotive_design', 1998, #130 ) ;
#192 = FILL_AREA_STYLE_COLOUR ( '', #150 ) ;
#193 = PRODUCT_DEFINITION_SHAPE ( 'NONE', 'NONE',  #33 ) ;
#194 = FACE_OUTER_BOUND ( 'NONE', #109, .T. ) ;
#195 = FACE_BOUND ( 'NONE', #92, .T. ) ;
#196 = STYLED_ITEM ( 'NONE', ( #171 ), #211 ) ;
#197 =( NAMED_UNIT ( * ) SI_UNIT ( $, .STERADIAN. ) SOLID_ANGLE_UNIT ( ) );
#198 = DIRECTION ( 'NONE',  ( -1.000000000000000000, -0.000000000000000000, -0.000000000000000000 ) ) ;
#199 = VECTOR ( 'NONE', #68, 39.37007874015748143 ) ;
#200 = CYLINDRICAL_SURFACE ( 'NONE', #83, 0.5000000000000000000 ) ;
#201 =( LENGTH_UNIT ( ) NAMED_UNIT ( * ) SI_UNIT ( $, .METRE. ) );
#202 = ORIENTED_EDGE ( 'NONE', *, *, #187, .F. ) ;
#203 = CARTESIAN_POINT ( 'NONE',  ( 23.50000000000000000, 6.123233995736766036E-17, -0.5000000000000000000 ) ) ;
#204 = CARTESIAN_POINT ( 'NONE',  ( 23.50000000000000000, 0.000000000000000000, 0.000000000000000000 ) ) ;
#205 = AXIS2_PLACEMENT_3D ( 'NONE', #86, #208, #214 ) ;
#206 = ORIENTED_EDGE ( 'NONE', *, *, #187, .T. ) ;
#207 = SURFACE_SIDE_STYLE ('',( #173 ) ) ;
#208 = DIRECTION ( 'NONE',  ( -1.000000000000000000, -0.000000000000000000, -0.000000000000000000 ) ) ;
#209 =( GEOMETRIC_REPRESENTATION_CONTEXT ( 3 ) GLOBAL_UNCERTAINTY_ASSIGNED_CONTEXT ( ( #49 ) ) GLOBAL_UNIT_ASSIGNED_CONTEXT ( ( #9, #111, #185 ) ) REPRESENTATION_CONTEXT ( 'NONE', 'WORKASPACE' ) );
#210 =( LENGTH_UNIT ( ) NAMED_UNIT ( * ) SI_UNIT ( $, .METRE. ) );
#211 = ADVANCED_BREP_SHAPE_REPRESENTATION ( 'WCP-1262 Rev1', ( #62, #17 ), #209 ) ;
#212 = VERTEX_POINT ( 'NONE', #165 ) ;
#213 = CYLINDRICAL_SURFACE ( 'NONE', #132, 0.4375000000000000000 ) ;
#214 = DIRECTION ( 'NONE',  ( 0.000000000000000000, 0.000000000000000000, 1.000000000000000000 ) ) ;
#215 = CARTESIAN_POINT ( 'NONE',  ( -23.50000000000000000, 0.000000000000000000, 0.000000000000000000 ) ) ;
#216 = DIRECTION ( 'NONE',  ( 1.000000000000000000, 0.000000000000000000, 0.000000000000000000 ) ) ;
#217 = PLANE ( 'NONE',  #106 ) ;
#218 = DIRECTION ( 'NONE',  ( 1.000000000000000000, 0.000000000000000000, 0.000000000000000000 ) ) ;
#219 = UNCERTAINTY_MEASURE_WITH_UNIT (LENGTH_MEASURE( 1.000000000000000082E-05 ), #100, 'distance_accuracy_value', 'NONE');
#220 = ADVANCED_FACE ( 'NONE', ( #128 ), #200, .T. ) ;
#221 = CIRCLE ( 'NONE', #44, 0.5000000000000000000 ) ;
#222 = APPLICATION_CONTEXT ( 'automotive_design' ) ;
#223 =( NAMED_UNIT ( * ) PLANE_ANGLE_UNIT ( ) SI_UNIT ( $, .RADIAN. ) );
ENDSEC;
END-ISO-10303-21;
