ISO-10303-21;
HEADER;
FILE_DESCRIPTION (( 'STEP AP214' ),
    '1' );
FILE_NAME ('WCP-1261 Rev1.step',
    '2024-01-04T23:47:39',
    ( '' ),
    ( '' ),
    'SwSTEP 2.0',
    'SolidWorks 2022',
    '' );
FILE_SCHEMA (( 'AUTOMOTIVE_DESIGN' ));
ENDSEC;

DATA;
#1 = AXIS2_PLACEMENT_3D ( 'NONE', #186, #51, #193 ) ;
#2 = VERTEX_POINT ( 'NONE', #94 ) ;
#3 = EDGE_CURVE ( 'NONE', #122, #126, #158, .T. ) ;
#4 = ADVANCED_FACE ( 'NONE', ( #157 ), #7, .T. ) ;
#5 = CYLINDRICAL_SURFACE ( 'NONE', #21, 0.3750000000000000555 ) ;
#6 = CARTESIAN_POINT ( 'NONE',  ( -23.50000000000000000, 4.592425496802575451E-17, -0.3750000000000000555 ) ) ;
#7 = CYLINDRICAL_SURFACE ( 'NONE', #38, 0.3750000000000000555 ) ;
#8 = EDGE_LOOP ( 'NONE', ( #153, #81 ) ) ;
#9 = CIRCLE ( 'NONE', #160, 0.3125000000000000000 ) ;
#10 = CARTESIAN_POINT ( 'NONE',  ( 23.50000000000000000, 4.592425496802575451E-17, -0.3750000000000000555 ) ) ;
#11 =( CONVERSION_BASED_UNIT ( 'INCH', #202 ) LENGTH_UNIT ( ) NAMED_UNIT ( #129 ) );
#12 = EDGE_CURVE ( 'NONE', #93, #31, #64, .T. ) ;
#13 = AXIS2_PLACEMENT_3D ( 'NONE', #43, #156, #189 ) ;
#14 = CARTESIAN_POINT ( 'NONE',  ( 23.50000000000000000, 0.000000000000000000, 0.3125000000000000000 ) ) ;
#15 = DIRECTION ( 'NONE',  ( 1.000000000000000000, 0.000000000000000000, 0.000000000000000000 ) ) ;
#16 = ORIENTED_EDGE ( 'NONE', *, *, #66, .F. ) ;
#17 = APPLICATION_CONTEXT ( 'automotive_design' ) ;
#18 = ADVANCED_FACE ( 'NONE', ( #20 ), #5, .T. ) ;
#19 = EDGE_CURVE ( 'NONE', #31, #2, #196, .T. ) ;
#20 = FACE_OUTER_BOUND ( 'NONE', #223, .T. ) ;
#21 = AXIS2_PLACEMENT_3D ( 'NONE', #130, #208, #90 ) ;
#22 = EDGE_LOOP ( 'NONE', ( #41, #95 ) ) ;
#23 = ORIENTED_EDGE ( 'NONE', *, *, #77, .T. ) ;
#24 = CARTESIAN_POINT ( 'NONE',  ( 23.50000000000000000, 0.000000000000000000, 0.000000000000000000 ) ) ;
#25 = DIRECTION ( 'NONE',  ( 1.000000000000000000, 0.000000000000000000, 0.000000000000000000 ) ) ;
#26 = COLOUR_RGB ( '',0.2980392156862745057, 0.2980392156862745057, 0.2980392156862745057 ) ;
#27 =( GEOMETRIC_REPRESENTATION_CONTEXT ( 3 ) GLOBAL_UNCERTAINTY_ASSIGNED_CONTEXT ( ( #206 ) ) GLOBAL_UNIT_ASSIGNED_CONTEXT ( ( #11, #119, #135 ) ) REPRESENTATION_CONTEXT ( 'NONE', 'WORKASPACE' ) );
#28 = SURFACE_SIDE_STYLE ('',( #48 ) ) ;
#29 = DIRECTION ( 'NONE',  ( 1.000000000000000000, 0.000000000000000000, 0.000000000000000000 ) ) ;
#30 = CARTESIAN_POINT ( 'NONE',  ( 23.50000000000000000, 0.000000000000000000, 0.000000000000000000 ) ) ;
#31 = VERTEX_POINT ( 'NONE', #6 ) ;
#32 = ADVANCED_FACE ( 'NONE', ( #128, #109 ), #37, .F. ) ;
#33 = ORIENTED_EDGE ( 'NONE', *, *, #12, .F. ) ;
#34 = ORIENTED_EDGE ( 'NONE', *, *, #133, .F. ) ;
#35 = DIRECTION ( 'NONE',  ( -1.000000000000000000, -0.000000000000000000, -0.000000000000000000 ) ) ;
#36 = SURFACE_SIDE_STYLE ('',( #71 ) ) ;
#37 = PLANE ( 'NONE',  #53 ) ;
#38 = AXIS2_PLACEMENT_3D ( 'NONE', #79, #175, #39 ) ;
#39 = DIRECTION ( 'NONE',  ( 0.000000000000000000, 0.000000000000000000, 1.000000000000000000 ) ) ;
#40 = EDGE_CURVE ( 'NONE', #93, #62, #80, .T. ) ;
#41 = ORIENTED_EDGE ( 'NONE', *, *, #173, .F. ) ;
#42 = UNCERTAINTY_MEASURE_WITH_UNIT (LENGTH_MEASURE( 1.000000000000000082E-05 ), #138, 'distance_accuracy_value', 'NONE');
#43 = CARTESIAN_POINT ( 'NONE',  ( 23.50000000000000000, 0.000000000000000000, 0.000000000000000000 ) ) ;
#44 = VECTOR ( 'NONE', #60, 39.37007874015748143 ) ;
#45 = CARTESIAN_POINT ( 'NONE',  ( 23.50000000000000000, 3.827021247335478926E-17, -0.3125000000000000000 ) ) ;
#46 = FACE_OUTER_BOUND ( 'NONE', #52, .T. ) ;
#47 = CIRCLE ( 'NONE', #110, 0.3125000000000000000 ) ;
#48 = SURFACE_STYLE_FILL_AREA ( #131 ) ;
#49 = ORIENTED_EDGE ( 'NONE', *, *, #124, .F. ) ;
#50 = PRODUCT_DEFINITION_CONTEXT ( 'detailed design', #17, 'design' ) ;
#51 = DIRECTION ( 'NONE',  ( 0.000000000000000000, 0.000000000000000000, 1.000000000000000000 ) ) ;
#52 = EDGE_LOOP ( 'NONE', ( #159, #154, #194, #184 ) ) ;
#53 = AXIS2_PLACEMENT_3D ( 'NONE', #213, #78, #113 ) ;
#54 = ORIENTED_EDGE ( 'NONE', *, *, #40, .T. ) ;
#55 = ADVANCED_BREP_SHAPE_REPRESENTATION ( 'WCP-1261 Rev1', ( #217, #1 ), #144 ) ;
#56 =( NAMED_UNIT ( * ) PLANE_ANGLE_UNIT ( ) SI_UNIT ( $, .RADIAN. ) );
#57 = STYLED_ITEM ( 'NONE', ( #99 ), #217 ) ;
#58 =( LENGTH_UNIT ( ) NAMED_UNIT ( * ) SI_UNIT ( $, .METRE. ) );
#59 = PRESENTATION_LAYER_ASSIGNMENT (  '', '', ( #151 ) ) ;
#60 = DIRECTION ( 'NONE',  ( -1.000000000000000000, -0.000000000000000000, -0.000000000000000000 ) ) ;
#61 = CARTESIAN_POINT ( 'NONE',  ( -23.50000000000000000, 0.000000000000000000, 0.000000000000000000 ) ) ;
#62 = VERTEX_POINT ( 'NONE', #63 ) ;
#63 = CARTESIAN_POINT ( 'NONE',  ( 23.50000000000000000, 0.000000000000000000, 0.3750000000000000555 ) ) ;
#64 = LINE ( 'NONE', #145, #136 ) ;
#65 = UNCERTAINTY_MEASURE_WITH_UNIT (LENGTH_MEASURE( 1.000000000000000082E-05 ), #137, 'distance_accuracy_value', 'NONE');
#66 = EDGE_CURVE ( 'NONE', #62, #2, #171, .T. ) ;
#67 = DIRECTION ( 'NONE',  ( 0.000000000000000000, 0.000000000000000000, -1.000000000000000000 ) ) ;
#68 = CARTESIAN_POINT ( 'NONE',  ( -23.50000000000000000, 3.827021247335478926E-17, -0.3125000000000000000 ) ) ;
#69 = DIRECTION ( 'NONE',  ( 0.000000000000000000, 0.000000000000000000, 1.000000000000000000 ) ) ;
#70 = LENGTH_MEASURE_WITH_UNIT ( LENGTH_MEASURE( 0.02539999999999999897 ), #183 );
#71 = SURFACE_STYLE_FILL_AREA ( #89 ) ;
#72 = CIRCLE ( 'NONE', #162, 0.3750000000000000555 ) ;
#73 = PRODUCT_RELATED_PRODUCT_CATEGORY ( 'part', '', ( #211 ) ) ;
#74 = VECTOR ( 'NONE', #180, 39.37007874015748143 ) ;
#75 = FACE_OUTER_BOUND ( 'NONE', #142, .T. ) ;
#76 = SURFACE_STYLE_USAGE ( .BOTH. , #36 ) ;
#77 = EDGE_CURVE ( 'NONE', #115, #122, #106, .T. ) ;
#78 = DIRECTION ( 'NONE',  ( 1.000000000000000000, 0.000000000000000000, 0.000000000000000000 ) ) ;
#79 = CARTESIAN_POINT ( 'NONE',  ( 23.50000000000000000, 0.000000000000000000, 0.000000000000000000 ) ) ;
#80 = CIRCLE ( 'NONE', #203, 0.3750000000000000555 ) ;
#81 = ORIENTED_EDGE ( 'NONE', *, *, #124, .T. ) ;
#82 = CARTESIAN_POINT ( 'NONE',  ( 23.50000000000000000, 0.000000000000000000, 0.000000000000000000 ) ) ;
#83 = CARTESIAN_POINT ( 'NONE',  ( -23.50000000000000000, 0.000000000000000000, 0.000000000000000000 ) ) ;
#84 = CYLINDRICAL_SURFACE ( 'NONE', #123, 0.3125000000000000000 ) ;
#85 = SURFACE_STYLE_USAGE ( .BOTH. , #28 ) ;
#86 = MECHANICAL_DESIGN_GEOMETRIC_PRESENTATION_REPRESENTATION (  '', ( #57 ), #27 ) ;
#87 = ORIENTED_EDGE ( 'NONE', *, *, #181, .T. ) ;
#88 = ORIENTED_EDGE ( 'NONE', *, *, #19, .T. ) ;
#89 = FILL_AREA_STYLE ('',( #102 ) ) ;
#90 = DIRECTION ( 'NONE',  ( 0.000000000000000000, 0.000000000000000000, 1.000000000000000000 ) ) ;
#91 = CLOSED_SHELL ( 'NONE', ( #205, #18, #198, #32, #4, #107 ) ) ;
#92 = EDGE_CURVE ( 'NONE', #2, #31, #214, .T. ) ;
#93 = VERTEX_POINT ( 'NONE', #10 ) ;
#94 = CARTESIAN_POINT ( 'NONE',  ( -23.50000000000000000, 0.000000000000000000, 0.3750000000000000555 ) ) ;
#95 = ORIENTED_EDGE ( 'NONE', *, *, #77, .F. ) ;
#96 = COLOUR_RGB ( '',0.2980392156862745057, 0.2980392156862745057, 0.2980392156862745057 ) ;
#97 = AXIS2_PLACEMENT_3D ( 'NONE', #149, #29, #150 ) ;
#98 = DIRECTION ( 'NONE',  ( 1.000000000000000000, 0.000000000000000000, 0.000000000000000000 ) ) ;
#99 = PRESENTATION_STYLE_ASSIGNMENT (( #85 ) ) ;
#100 = AXIS2_PLACEMENT_3D ( 'NONE', #117, #132, #201 ) ;
#101 = PLANE ( 'NONE',  #100 ) ;
#102 = FILL_AREA_STYLE_COLOUR ( '', #26 ) ;
#103 = ORIENTED_EDGE ( 'NONE', *, *, #92, .F. ) ;
#104 = ORIENTED_EDGE ( 'NONE', *, *, #40, .F. ) ;
#105 = ORIENTED_EDGE ( 'NONE', *, *, #181, .F. ) ;
#106 = CIRCLE ( 'NONE', #13, 0.3125000000000000000 ) ;
#107 = ADVANCED_FACE ( 'NONE', ( #75 ), #140, .F. ) ;
#108 = CARTESIAN_POINT ( 'NONE',  ( 23.50000000000000000, 3.827021247335478926E-17, -0.3125000000000000000 ) ) ;
#109 = FACE_BOUND ( 'NONE', #8, .T. ) ;
#110 = AXIS2_PLACEMENT_3D ( 'NONE', #61, #220, #67 ) ;
#111 = APPLICATION_PROTOCOL_DEFINITION ( 'draft international standard', 'automotive_design', 1998, #120 ) ;
#112 = PRODUCT_DEFINITION_FORMATION_WITH_SPECIFIED_SOURCE ( 'ANY', '', #211, .NOT_KNOWN. ) ;
#113 = DIRECTION ( 'NONE',  ( 0.000000000000000000, 0.000000000000000000, -1.000000000000000000 ) ) ;
#114 = ORIENTED_EDGE ( 'NONE', *, *, #92, .T. ) ;
#115 = VERTEX_POINT ( 'NONE', #108 ) ;
#116 = DIRECTION ( 'NONE',  ( -1.000000000000000000, -0.000000000000000000, -0.000000000000000000 ) ) ;
#117 = CARTESIAN_POINT ( 'NONE',  ( 23.50000000000000000, 0.000000000000000000, 0.000000000000000000 ) ) ;
#118 = EDGE_CURVE ( 'NONE', #126, #167, #47, .T. ) ;
#119 =( NAMED_UNIT ( * ) PLANE_ANGLE_UNIT ( ) SI_UNIT ( $, .RADIAN. ) );
#120 = APPLICATION_CONTEXT ( 'automotive_design' ) ;
#121 = EDGE_LOOP ( 'NONE', ( #33, #105, #168, #114 ) ) ;
#122 = VERTEX_POINT ( 'NONE', #14 ) ;
#123 = AXIS2_PLACEMENT_3D ( 'NONE', #218, #116, #69 ) ;
#124 = EDGE_CURVE ( 'NONE', #167, #126, #9, .T. ) ;
#125 = DIRECTION ( 'NONE',  ( 1.000000000000000000, 0.000000000000000000, 0.000000000000000000 ) ) ;
#126 = VERTEX_POINT ( 'NONE', #147 ) ;
#127 = CARTESIAN_POINT ( 'NONE',  ( 23.50000000000000000, 0.000000000000000000, 0.3125000000000000000 ) ) ;
#128 = FACE_OUTER_BOUND ( 'NONE', #155, .T. ) ;
#129 = DIMENSIONAL_EXPONENTS ( 1.000000000000000000, 0.000000000000000000, 0.000000000000000000, 0.000000000000000000, 0.000000000000000000, 0.000000000000000000, 0.000000000000000000 ) ;
#130 = CARTESIAN_POINT ( 'NONE',  ( 23.50000000000000000, 0.000000000000000000, 0.000000000000000000 ) ) ;
#131 = FILL_AREA_STYLE ('',( #179 ) ) ;
#132 = DIRECTION ( 'NONE',  ( 1.000000000000000000, 0.000000000000000000, 0.000000000000000000 ) ) ;
#133 = EDGE_CURVE ( 'NONE', #115, #167, #178, .T. ) ;
#134 = DIRECTION ( 'NONE',  ( 0.000000000000000000, 0.000000000000000000, -1.000000000000000000 ) ) ;
#135 =( NAMED_UNIT ( * ) SI_UNIT ( $, .STERADIAN. ) SOLID_ANGLE_UNIT ( ) );
#136 = VECTOR ( 'NONE', #216, 39.37007874015748143 ) ;
#137 =( CONVERSION_BASED_UNIT ( 'INCH', #70 ) LENGTH_UNIT ( ) NAMED_UNIT ( #146 ) );
#138 =( CONVERSION_BASED_UNIT ( 'INCH', #170 ) LENGTH_UNIT ( ) NAMED_UNIT ( #192 ) );
#139 = PRESENTATION_STYLE_ASSIGNMENT (( #76 ) ) ;
#140 = CYLINDRICAL_SURFACE ( 'NONE', #207, 0.3125000000000000000 ) ;
#141 = DIRECTION ( 'NONE',  ( 0.000000000000000000, 0.000000000000000000, -1.000000000000000000 ) ) ;
#142 = EDGE_LOOP ( 'NONE', ( #34, #23, #191, #49 ) ) ;
#143 = AXIS2_PLACEMENT_3D ( 'NONE', #169, #125, #199 ) ;
#144 =( GEOMETRIC_REPRESENTATION_CONTEXT ( 3 ) GLOBAL_UNCERTAINTY_ASSIGNED_CONTEXT ( ( #65 ) ) GLOBAL_UNIT_ASSIGNED_CONTEXT ( ( #137, #165, #200 ) ) REPRESENTATION_CONTEXT ( 'NONE', 'WORKASPACE' ) );
#145 = CARTESIAN_POINT ( 'NONE',  ( 23.50000000000000000, 4.592425496802575451E-17, -0.3750000000000000555 ) ) ;
#146 = DIMENSIONAL_EXPONENTS ( 1.000000000000000000, 0.000000000000000000, 0.000000000000000000, 0.000000000000000000, 0.000000000000000000, 0.000000000000000000, 0.000000000000000000 ) ;
#147 = CARTESIAN_POINT ( 'NONE',  ( -23.50000000000000000, 0.000000000000000000, 0.3125000000000000000 ) ) ;
#148 = AXIS2_PLACEMENT_3D ( 'NONE', #212, #98, #161 ) ;
#149 = CARTESIAN_POINT ( 'NONE',  ( 23.50000000000000000, 0.000000000000000000, 0.000000000000000000 ) ) ;
#150 = DIRECTION ( 'NONE',  ( 0.000000000000000000, 0.000000000000000000, -1.000000000000000000 ) ) ;
#151 = STYLED_ITEM ( 'NONE', ( #139 ), #55 ) ;
#152 = PRODUCT_CONTEXT ( 'NONE', #120, 'mechanical' ) ;
#153 = ORIENTED_EDGE ( 'NONE', *, *, #118, .T. ) ;
#154 = ORIENTED_EDGE ( 'NONE', *, *, #133, .T. ) ;
#155 = EDGE_LOOP ( 'NONE', ( #103, #164 ) ) ;
#156 = DIRECTION ( 'NONE',  ( 1.000000000000000000, 0.000000000000000000, 0.000000000000000000 ) ) ;
#157 = FACE_OUTER_BOUND ( 'NONE', #121, .T. ) ;
#158 = LINE ( 'NONE', #127, #44 ) ;
#159 = ORIENTED_EDGE ( 'NONE', *, *, #173, .T. ) ;
#160 = AXIS2_PLACEMENT_3D ( 'NONE', #83, #204, #163 ) ;
#161 = DIRECTION ( 'NONE',  ( 0.000000000000000000, 0.000000000000000000, -1.000000000000000000 ) ) ;
#162 = AXIS2_PLACEMENT_3D ( 'NONE', #30, #15, #134 ) ;
#163 = DIRECTION ( 'NONE',  ( 0.000000000000000000, 0.000000000000000000, -1.000000000000000000 ) ) ;
#164 = ORIENTED_EDGE ( 'NONE', *, *, #19, .F. ) ;
#165 =( NAMED_UNIT ( * ) PLANE_ANGLE_UNIT ( ) SI_UNIT ( $, .RADIAN. ) );
#166 = VECTOR ( 'NONE', #197, 39.37007874015748143 ) ;
#167 = VERTEX_POINT ( 'NONE', #68 ) ;
#168 = ORIENTED_EDGE ( 'NONE', *, *, #66, .T. ) ;
#169 = CARTESIAN_POINT ( 'NONE',  ( -23.50000000000000000, 0.000000000000000000, 0.000000000000000000 ) ) ;
#170 = LENGTH_MEASURE_WITH_UNIT ( LENGTH_MEASURE( 0.02539999999999999897 ), #58 );
#171 = LINE ( 'NONE', #174, #166 ) ;
#172 =( NAMED_UNIT ( * ) SI_UNIT ( $, .STERADIAN. ) SOLID_ANGLE_UNIT ( ) );
#173 = EDGE_CURVE ( 'NONE', #122, #115, #188, .T. ) ;
#174 = CARTESIAN_POINT ( 'NONE',  ( 23.50000000000000000, 0.000000000000000000, 0.3750000000000000555 ) ) ;
#175 = DIRECTION ( 'NONE',  ( -1.000000000000000000, -0.000000000000000000, -0.000000000000000000 ) ) ;
#176 = PRESENTATION_LAYER_ASSIGNMENT (  '', '', ( #57 ) ) ;
#177 = MECHANICAL_DESIGN_GEOMETRIC_PRESENTATION_REPRESENTATION (  '', ( #151 ), #182 ) ;
#178 = LINE ( 'NONE', #45, #74 ) ;
#179 = FILL_AREA_STYLE_COLOUR ( '', #96 ) ;
#180 = DIRECTION ( 'NONE',  ( -1.000000000000000000, -0.000000000000000000, -0.000000000000000000 ) ) ;
#181 = EDGE_CURVE ( 'NONE', #62, #93, #72, .T. ) ;
#182 =( GEOMETRIC_REPRESENTATION_CONTEXT ( 3 ) GLOBAL_UNCERTAINTY_ASSIGNED_CONTEXT ( ( #42 ) ) GLOBAL_UNIT_ASSIGNED_CONTEXT ( ( #138, #56, #172 ) ) REPRESENTATION_CONTEXT ( 'NONE', 'WORKASPACE' ) );
#183 =( LENGTH_UNIT ( ) NAMED_UNIT ( * ) SI_UNIT ( $, .METRE. ) );
#184 = ORIENTED_EDGE ( 'NONE', *, *, #3, .F. ) ;
#185 =( LENGTH_UNIT ( ) NAMED_UNIT ( * ) SI_UNIT ( $, .METRE. ) );
#186 = CARTESIAN_POINT ( 'NONE',  ( 0.000000000000000000, 0.000000000000000000, 0.000000000000000000 ) ) ;
#187 = ORIENTED_EDGE ( 'NONE', *, *, #12, .T. ) ;
#188 = CIRCLE ( 'NONE', #97, 0.3125000000000000000 ) ;
#189 = DIRECTION ( 'NONE',  ( 0.000000000000000000, 0.000000000000000000, -1.000000000000000000 ) ) ;
#190 = APPLICATION_PROTOCOL_DEFINITION ( 'draft international standard', 'automotive_design', 1998, #17 ) ;
#191 = ORIENTED_EDGE ( 'NONE', *, *, #3, .T. ) ;
#192 = DIMENSIONAL_EXPONENTS ( 1.000000000000000000, 0.000000000000000000, 0.000000000000000000, 0.000000000000000000, 0.000000000000000000, 0.000000000000000000, 0.000000000000000000 ) ;
#193 = DIRECTION ( 'NONE',  ( 1.000000000000000000, 0.000000000000000000, 0.000000000000000000 ) ) ;
#194 = ORIENTED_EDGE ( 'NONE', *, *, #118, .F. ) ;
#195 = PRODUCT_DEFINITION_SHAPE ( 'NONE', 'NONE',  #221 ) ;
#196 = CIRCLE ( 'NONE', #143, 0.3750000000000000555 ) ;
#197 = DIRECTION ( 'NONE',  ( -1.000000000000000000, -0.000000000000000000, -0.000000000000000000 ) ) ;
#198 = ADVANCED_FACE ( 'NONE', ( #222, #219 ), #101, .T. ) ;
#199 = DIRECTION ( 'NONE',  ( 0.000000000000000000, 0.000000000000000000, -1.000000000000000000 ) ) ;
#200 =( NAMED_UNIT ( * ) SI_UNIT ( $, .STERADIAN. ) SOLID_ANGLE_UNIT ( ) );
#201 = DIRECTION ( 'NONE',  ( 0.000000000000000000, 0.000000000000000000, -1.000000000000000000 ) ) ;
#202 = LENGTH_MEASURE_WITH_UNIT ( LENGTH_MEASURE( 0.02539999999999999897 ), #185 );
#203 = AXIS2_PLACEMENT_3D ( 'NONE', #24, #25, #141 ) ;
#204 = DIRECTION ( 'NONE',  ( 1.000000000000000000, 0.000000000000000000, 0.000000000000000000 ) ) ;
#205 = ADVANCED_FACE ( 'NONE', ( #46 ), #84, .F. ) ;
#206 = UNCERTAINTY_MEASURE_WITH_UNIT (LENGTH_MEASURE( 1.000000000000000082E-05 ), #11, 'distance_accuracy_value', 'NONE');
#207 = AXIS2_PLACEMENT_3D ( 'NONE', #82, #35, #210 ) ;
#208 = DIRECTION ( 'NONE',  ( -1.000000000000000000, -0.000000000000000000, -0.000000000000000000 ) ) ;
#209 = SHAPE_DEFINITION_REPRESENTATION ( #195, #55 ) ;
#210 = DIRECTION ( 'NONE',  ( 0.000000000000000000, 0.000000000000000000, 1.000000000000000000 ) ) ;
#211 = PRODUCT ( 'WCP-1261 Rev1', 'WCP-1261 Rev1', '', ( #152 ) ) ;
#212 = CARTESIAN_POINT ( 'NONE',  ( -23.50000000000000000, 0.000000000000000000, 0.000000000000000000 ) ) ;
#213 = CARTESIAN_POINT ( 'NONE',  ( -23.50000000000000000, 0.000000000000000000, 0.000000000000000000 ) ) ;
#214 = CIRCLE ( 'NONE', #148, 0.3750000000000000555 ) ;
#215 = EDGE_LOOP ( 'NONE', ( #87, #54 ) ) ;
#216 = DIRECTION ( 'NONE',  ( -1.000000000000000000, -0.000000000000000000, -0.000000000000000000 ) ) ;
#217 = MANIFOLD_SOLID_BREP ( 'Extrude-Thin2', #91 ) ;
#218 = CARTESIAN_POINT ( 'NONE',  ( 23.50000000000000000, 0.000000000000000000, 0.000000000000000000 ) ) ;
#219 = FACE_BOUND ( 'NONE', #22, .T. ) ;
#220 = DIRECTION ( 'NONE',  ( 1.000000000000000000, 0.000000000000000000, 0.000000000000000000 ) ) ;
#221 = PRODUCT_DEFINITION ( 'UNKNOWN', '', #112, #50 ) ;
#222 = FACE_OUTER_BOUND ( 'NONE', #215, .T. ) ;
#223 = EDGE_LOOP ( 'NONE', ( #104, #187, #88, #16 ) ) ;
ENDSEC;
END-ISO-10303-21;
