ISO-10303-21;
HEADER;
FILE_DESCRIPTION (( 'STEP AP214' ),
    '1' );
FILE_NAME ('WCP-1260 Rev1.step',
    '2024-01-04T23:47:35',
    ( '' ),
    ( '' ),
    'SwSTEP 2.0',
    'SolidWorks 2022',
    '' );
FILE_SCHEMA (( 'AUTOMOTIVE_DESIGN' ));
ENDSEC;

DATA;
#1 = EDGE_CURVE ( 'NONE', #41, #78, #154, .T. ) ;
#2 = EDGE_LOOP ( 'NONE', ( #125, #126 ) ) ;
#3 = DIRECTION ( 'NONE',  ( 0.000000000000000000, 0.000000000000000000, 1.000000000000000000 ) ) ;
#4 = VECTOR ( 'NONE', #8, 39.37007874015748143 ) ;
#5 = DIRECTION ( 'NONE',  ( 0.000000000000000000, 0.000000000000000000, -1.000000000000000000 ) ) ;
#6 = FACE_OUTER_BOUND ( 'NONE', #2, .T. ) ;
#7 = ADVANCED_FACE ( 'NONE', ( #128 ), #181, .F. ) ;
#8 = DIRECTION ( 'NONE',  ( -1.000000000000000000, -0.000000000000000000, -0.000000000000000000 ) ) ;
#9 = DIRECTION ( 'NONE',  ( -1.000000000000000000, -0.000000000000000000, -0.000000000000000000 ) ) ;
#10 = CARTESIAN_POINT ( 'NONE',  ( 23.50000000000000000, 0.000000000000000000, 0.000000000000000000 ) ) ;
#11 =( NAMED_UNIT ( * ) PLANE_ANGLE_UNIT ( ) SI_UNIT ( $, .RADIAN. ) );
#12 = CARTESIAN_POINT ( 'NONE',  ( 23.50000000000000000, 3.061616997868383018E-17, -0.2500000000000000000 ) ) ;
#13 = VECTOR ( 'NONE', #203, 39.37007874015748143 ) ;
#14 = MECHANICAL_DESIGN_GEOMETRIC_PRESENTATION_REPRESENTATION (  '', ( #60 ), #104 ) ;
#15 =( NAMED_UNIT ( * ) PLANE_ANGLE_UNIT ( ) SI_UNIT ( $, .RADIAN. ) );
#16 = CIRCLE ( 'NONE', #219, 0.2500000000000000000 ) ;
#17 = EDGE_LOOP ( 'NONE', ( #112, #33 ) ) ;
#18 = ORIENTED_EDGE ( 'NONE', *, *, #100, .T. ) ;
#19 = ADVANCED_FACE ( 'NONE', ( #61 ), #36, .T. ) ;
#20 = PRESENTATION_STYLE_ASSIGNMENT (( #127 ) ) ;
#21 = EDGE_LOOP ( 'NONE', ( #194, #175, #116, #109 ) ) ;
#22 = VERTEX_POINT ( 'NONE', #215 ) ;
#23 = PLANE ( 'NONE',  #180 ) ;
#24 = VECTOR ( 'NONE', #221, 39.37007874015748143 ) ;
#25 = CYLINDRICAL_SURFACE ( 'NONE', #52, 0.2500000000000000000 ) ;
#26 = DIRECTION ( 'NONE',  ( 1.000000000000000000, 0.000000000000000000, 0.000000000000000000 ) ) ;
#27 = CARTESIAN_POINT ( 'NONE',  ( -23.50000000000000000, 0.000000000000000000, 0.000000000000000000 ) ) ;
#28 = SURFACE_STYLE_USAGE ( .BOTH. , #206 ) ;
#29 = CARTESIAN_POINT ( 'NONE',  ( -23.50000000000000000, 3.061616997868383018E-17, -0.2500000000000000000 ) ) ;
#30 = APPLICATION_PROTOCOL_DEFINITION ( 'draft international standard', 'automotive_design', 1998, #69 ) ;
#31 = EDGE_LOOP ( 'NONE', ( #201, #79 ) ) ;
#32 = AXIS2_PLACEMENT_3D ( 'NONE', #64, #44, #67 ) ;
#33 = ORIENTED_EDGE ( 'NONE', *, *, #106, .F. ) ;
#34 = APPLICATION_PROTOCOL_DEFINITION ( 'draft international standard', 'automotive_design', 1998, #157 ) ;
#35 = DIRECTION ( 'NONE',  ( 1.000000000000000000, 0.000000000000000000, 0.000000000000000000 ) ) ;
#36 = CYLINDRICAL_SURFACE ( 'NONE', #150, 0.2500000000000000000 ) ;
#37 = DIRECTION ( 'NONE',  ( 0.000000000000000000, 0.000000000000000000, 1.000000000000000000 ) ) ;
#38 = DIRECTION ( 'NONE',  ( 0.000000000000000000, 0.000000000000000000, -1.000000000000000000 ) ) ;
#39 = AXIS2_PLACEMENT_3D ( 'NONE', #80, #144, #214 ) ;
#40 = DIRECTION ( 'NONE',  ( -1.000000000000000000, -0.000000000000000000, -0.000000000000000000 ) ) ;
#41 = VERTEX_POINT ( 'NONE', #62 ) ;
#42 = FILL_AREA_STYLE_COLOUR ( '', #200 ) ;
#43 = VECTOR ( 'NONE', #111, 39.37007874015748143 ) ;
#44 = DIRECTION ( 'NONE',  ( -1.000000000000000000, -0.000000000000000000, -0.000000000000000000 ) ) ;
#45 = ORIENTED_EDGE ( 'NONE', *, *, #159, .T. ) ;
#46 = LINE ( 'NONE', #133, #13 ) ;
#47 = EDGE_CURVE ( 'NONE', #22, #140, #16, .T. ) ;
#48 =( CONVERSION_BASED_UNIT ( 'INCH', #218 ) LENGTH_UNIT ( ) NAMED_UNIT ( #162 ) );
#49 = PRODUCT_DEFINITION_FORMATION_WITH_SPECIFIED_SOURCE ( 'ANY', '', #143, .NOT_KNOWN. ) ;
#50 = LENGTH_MEASURE_WITH_UNIT ( LENGTH_MEASURE( 0.02539999999999999897 ), #88 );
#51 = EDGE_CURVE ( 'NONE', #22, #147, #165, .T. ) ;
#52 = AXIS2_PLACEMENT_3D ( 'NONE', #177, #9, #3 ) ;
#53 = ORIENTED_EDGE ( 'NONE', *, *, #122, .F. ) ;
#54 = SURFACE_STYLE_FILL_AREA ( #87 ) ;
#55 = EDGE_CURVE ( 'NONE', #209, #138, #84, .T. ) ;
#56 = CARTESIAN_POINT ( 'NONE',  ( 23.50000000000000000, 0.000000000000000000, 0.2500000000000000000 ) ) ;
#57 = CLOSED_SHELL ( 'NONE', ( #7, #19, #92, #96, #91, #130 ) ) ;
#58 = PLANE ( 'NONE',  #113 ) ;
#59 = DIRECTION ( 'NONE',  ( 1.000000000000000000, 0.000000000000000000, 0.000000000000000000 ) ) ;
#60 = STYLED_ITEM ( 'NONE', ( #103 ), #210 ) ;
#61 = FACE_OUTER_BOUND ( 'NONE', #21, .T. ) ;
#62 = CARTESIAN_POINT ( 'NONE',  ( 23.50000000000000000, 0.000000000000000000, 0.1874999999999999722 ) ) ;
#63 = EDGE_CURVE ( 'NONE', #41, #209, #75, .T. ) ;
#64 = CARTESIAN_POINT ( 'NONE',  ( 23.50000000000000000, 0.000000000000000000, 0.000000000000000000 ) ) ;
#65 = CIRCLE ( 'NONE', #124, 0.2500000000000000000 ) ;
#66 = DIRECTION ( 'NONE',  ( 0.000000000000000000, 0.000000000000000000, -1.000000000000000000 ) ) ;
#67 = DIRECTION ( 'NONE',  ( 0.000000000000000000, 0.000000000000000000, 1.000000000000000000 ) ) ;
#68 = DIRECTION ( 'NONE',  ( 1.000000000000000000, 0.000000000000000000, 0.000000000000000000 ) ) ;
#69 = APPLICATION_CONTEXT ( 'automotive_design' ) ;
#70 = SURFACE_SIDE_STYLE ('',( #54 ) ) ;
#71 = PRESENTATION_LAYER_ASSIGNMENT (  '', '', ( #60 ) ) ;
#72 = ORIENTED_EDGE ( 'NONE', *, *, #172, .F. ) ;
#73 = SHAPE_DEFINITION_REPRESENTATION ( #90, #158 ) ;
#74 = FACE_BOUND ( 'NONE', #17, .T. ) ;
#75 = LINE ( 'NONE', #217, #4 ) ;
#76 = CARTESIAN_POINT ( 'NONE',  ( -23.50000000000000000, 0.000000000000000000, 0.000000000000000000 ) ) ;
#77 = MECHANICAL_DESIGN_GEOMETRIC_PRESENTATION_REPRESENTATION (  '', ( #93 ), #216 ) ;
#78 = VERTEX_POINT ( 'NONE', #95 ) ;
#79 = ORIENTED_EDGE ( 'NONE', *, *, #122, .T. ) ;
#80 = CARTESIAN_POINT ( 'NONE',  ( -23.50000000000000000, 0.000000000000000000, 0.000000000000000000 ) ) ;
#81 = LINE ( 'NONE', #188, #24 ) ;
#82 =( LENGTH_UNIT ( ) NAMED_UNIT ( * ) SI_UNIT ( $, .METRE. ) );
#83 = UNCERTAINTY_MEASURE_WITH_UNIT (LENGTH_MEASURE( 1.000000000000000082E-05 ), #168, 'distance_accuracy_value', 'NONE');
#84 = CIRCLE ( 'NONE', #193, 0.1874999999999999722 ) ;
#85 = DIRECTION ( 'NONE',  ( 1.000000000000000000, 0.000000000000000000, 0.000000000000000000 ) ) ;
#86 = EDGE_LOOP ( 'NONE', ( #189, #45, #120, #176 ) ) ;
#87 = FILL_AREA_STYLE ('',( #137 ) ) ;
#88 =( LENGTH_UNIT ( ) NAMED_UNIT ( * ) SI_UNIT ( $, .METRE. ) );
#89 = ORIENTED_EDGE ( 'NONE', *, *, #106, .T. ) ;
#90 = PRODUCT_DEFINITION_SHAPE ( 'NONE', 'NONE',  #207 ) ;
#91 = ADVANCED_FACE ( 'NONE', ( #161 ), #25, .T. ) ;
#92 = ADVANCED_FACE ( 'NONE', ( #6, #74 ), #58, .T. ) ;
#93 = STYLED_ITEM ( 'NONE', ( #20 ), #158 ) ;
#94 =( CONVERSION_BASED_UNIT ( 'INCH', #50 ) LENGTH_UNIT ( ) NAMED_UNIT ( #182 ) );
#95 = CARTESIAN_POINT ( 'NONE',  ( 23.50000000000000000, 2.296212748401286801E-17, -0.1874999999999999722 ) ) ;
#96 = ADVANCED_FACE ( 'NONE', ( #117, #164 ), #23, .F. ) ;
#97 = CARTESIAN_POINT ( 'NONE',  ( 23.50000000000000000, 0.000000000000000000, 0.000000000000000000 ) ) ;
#98 = CIRCLE ( 'NONE', #208, 0.1874999999999999722 ) ;
#99 = DIRECTION ( 'NONE',  ( 0.000000000000000000, 0.000000000000000000, -1.000000000000000000 ) ) ;
#100 = EDGE_CURVE ( 'NONE', #147, #196, #173, .T. ) ;
#101 = DIRECTION ( 'NONE',  ( 1.000000000000000000, 0.000000000000000000, 0.000000000000000000 ) ) ;
#102 = LENGTH_MEASURE_WITH_UNIT ( LENGTH_MEASURE( 0.02539999999999999897 ), #82 );
#103 = PRESENTATION_STYLE_ASSIGNMENT (( #28 ) ) ;
#104 =( GEOMETRIC_REPRESENTATION_CONTEXT ( 3 ) GLOBAL_UNCERTAINTY_ASSIGNED_CONTEXT ( ( #220 ) ) GLOBAL_UNIT_ASSIGNED_CONTEXT ( ( #48, #11, #191 ) ) REPRESENTATION_CONTEXT ( 'NONE', 'WORKASPACE' ) );
#105 =( LENGTH_UNIT ( ) NAMED_UNIT ( * ) SI_UNIT ( $, .METRE. ) );
#106 = EDGE_CURVE ( 'NONE', #78, #41, #98, .T. ) ;
#107 = AXIS2_PLACEMENT_3D ( 'NONE', #27, #101, #167 ) ;
#108 = ORIENTED_EDGE ( 'NONE', *, *, #47, .F. ) ;
#109 = ORIENTED_EDGE ( 'NONE', *, *, #51, .F. ) ;
#110 = CARTESIAN_POINT ( 'NONE',  ( 23.50000000000000000, 0.000000000000000000, 0.000000000000000000 ) ) ;
#111 = DIRECTION ( 'NONE',  ( -1.000000000000000000, -0.000000000000000000, -0.000000000000000000 ) ) ;
#112 = ORIENTED_EDGE ( 'NONE', *, *, #1, .F. ) ;
#113 = AXIS2_PLACEMENT_3D ( 'NONE', #97, #202, #142 ) ;
#114 = PRODUCT_RELATED_PRODUCT_CATEGORY ( 'part', '', ( #143 ) ) ;
#115 = DIRECTION ( 'NONE',  ( -1.000000000000000000, -0.000000000000000000, -0.000000000000000000 ) ) ;
#116 = ORIENTED_EDGE ( 'NONE', *, *, #172, .T. ) ;
#117 = FACE_OUTER_BOUND ( 'NONE', #184, .T. ) ;
#118 = AXIS2_PLACEMENT_3D ( 'NONE', #199, #40, #131 ) ;
#119 = CARTESIAN_POINT ( 'NONE',  ( -23.50000000000000000, 0.000000000000000000, 0.2500000000000000000 ) ) ;
#120 = ORIENTED_EDGE ( 'NONE', *, *, #55, .F. ) ;
#121 = SURFACE_STYLE_FILL_AREA ( #134 ) ;
#122 = EDGE_CURVE ( 'NONE', #138, #209, #205, .T. ) ;
#123 =( NAMED_UNIT ( * ) SI_UNIT ( $, .STERADIAN. ) SOLID_ANGLE_UNIT ( ) );
#124 = AXIS2_PLACEMENT_3D ( 'NONE', #148, #85, #66 ) ;
#125 = ORIENTED_EDGE ( 'NONE', *, *, #47, .T. ) ;
#126 = ORIENTED_EDGE ( 'NONE', *, *, #152, .T. ) ;
#127 = SURFACE_STYLE_USAGE ( .BOTH. , #70 ) ;
#128 = FACE_OUTER_BOUND ( 'NONE', #86, .T. ) ;
#129 = CARTESIAN_POINT ( 'NONE',  ( 23.50000000000000000, 0.000000000000000000, 0.000000000000000000 ) ) ;
#130 = ADVANCED_FACE ( 'NONE', ( #212 ), #170, .F. ) ;
#131 = DIRECTION ( 'NONE',  ( 0.000000000000000000, 0.000000000000000000, 1.000000000000000000 ) ) ;
#132 = DIRECTION ( 'NONE',  ( 1.000000000000000000, 0.000000000000000000, 0.000000000000000000 ) ) ;
#133 = CARTESIAN_POINT ( 'NONE',  ( 23.50000000000000000, 2.296212748401286801E-17, -0.1874999999999999722 ) ) ;
#134 = FILL_AREA_STYLE ('',( #42 ) ) ;
#135 = UNCERTAINTY_MEASURE_WITH_UNIT (LENGTH_MEASURE( 1.000000000000000082E-05 ), #94, 'distance_accuracy_value', 'NONE');
#136 = DIRECTION ( 'NONE',  ( 1.000000000000000000, 0.000000000000000000, 0.000000000000000000 ) ) ;
#137 = FILL_AREA_STYLE_COLOUR ( '', #211 ) ;
#138 = VERTEX_POINT ( 'NONE', #186 ) ;
#139 = CIRCLE ( 'NONE', #163, 0.2500000000000000000 ) ;
#140 = VERTEX_POINT ( 'NONE', #12 ) ;
#141 = PRESENTATION_LAYER_ASSIGNMENT (  '', '', ( #93 ) ) ;
#142 = DIRECTION ( 'NONE',  ( 0.000000000000000000, 0.000000000000000000, -1.000000000000000000 ) ) ;
#143 = PRODUCT ( 'WCP-1260 Rev1', 'WCP-1260 Rev1', '', ( #179 ) ) ;
#144 = DIRECTION ( 'NONE',  ( 1.000000000000000000, 0.000000000000000000, 0.000000000000000000 ) ) ;
#145 = DIMENSIONAL_EXPONENTS ( 1.000000000000000000, 0.000000000000000000, 0.000000000000000000, 0.000000000000000000, 0.000000000000000000, 0.000000000000000000, 0.000000000000000000 ) ;
#146 = CARTESIAN_POINT ( 'NONE',  ( 23.50000000000000000, 0.000000000000000000, 0.000000000000000000 ) ) ;
#147 = VERTEX_POINT ( 'NONE', #119 ) ;
#148 = CARTESIAN_POINT ( 'NONE',  ( -23.50000000000000000, 0.000000000000000000, 0.000000000000000000 ) ) ;
#149 = DIRECTION ( 'NONE',  ( 0.000000000000000000, 0.000000000000000000, -1.000000000000000000 ) ) ;
#150 = AXIS2_PLACEMENT_3D ( 'NONE', #146, #115, #183 ) ;
#151 =( NAMED_UNIT ( * ) PLANE_ANGLE_UNIT ( ) SI_UNIT ( $, .RADIAN. ) );
#152 = EDGE_CURVE ( 'NONE', #140, #22, #139, .T. ) ;
#153 =( NAMED_UNIT ( * ) SI_UNIT ( $, .STERADIAN. ) SOLID_ANGLE_UNIT ( ) );
#154 = CIRCLE ( 'NONE', #187, 0.1874999999999999722 ) ;
#155 = AXIS2_PLACEMENT_3D ( 'NONE', #197, #37, #68 ) ;
#156 = ORIENTED_EDGE ( 'NONE', *, *, #100, .F. ) ;
#157 = APPLICATION_CONTEXT ( 'automotive_design' ) ;
#158 = ADVANCED_BREP_SHAPE_REPRESENTATION ( 'WCP-1260 Rev1', ( #210, #155 ), #190 ) ;
#159 = EDGE_CURVE ( 'NONE', #78, #138, #46, .T. ) ;
#160 = ORIENTED_EDGE ( 'NONE', *, *, #159, .F. ) ;
#161 = FACE_OUTER_BOUND ( 'NONE', #174, .T. ) ;
#162 = DIMENSIONAL_EXPONENTS ( 1.000000000000000000, 0.000000000000000000, 0.000000000000000000, 0.000000000000000000, 0.000000000000000000, 0.000000000000000000, 0.000000000000000000 ) ;
#163 = AXIS2_PLACEMENT_3D ( 'NONE', #10, #136, #149 ) ;
#164 = FACE_BOUND ( 'NONE', #31, .T. ) ;
#165 = LINE ( 'NONE', #56, #43 ) ;
#166 = DIRECTION ( 'NONE',  ( 0.000000000000000000, 0.000000000000000000, -1.000000000000000000 ) ) ;
#167 = DIRECTION ( 'NONE',  ( 0.000000000000000000, 0.000000000000000000, -1.000000000000000000 ) ) ;
#168 =( CONVERSION_BASED_UNIT ( 'INCH', #102 ) LENGTH_UNIT ( ) NAMED_UNIT ( #145 ) );
#169 = EDGE_CURVE ( 'NONE', #140, #196, #81, .T. ) ;
#170 = CYLINDRICAL_SURFACE ( 'NONE', #32, 0.1874999999999999722 ) ;
#171 = EDGE_LOOP ( 'NONE', ( #160, #89, #192, #53 ) ) ;
#172 = EDGE_CURVE ( 'NONE', #196, #147, #65, .T. ) ;
#173 = CIRCLE ( 'NONE', #39, 0.2500000000000000000 ) ;
#174 = EDGE_LOOP ( 'NONE', ( #223, #108, #195, #18 ) ) ;
#175 = ORIENTED_EDGE ( 'NONE', *, *, #169, .T. ) ;
#176 = ORIENTED_EDGE ( 'NONE', *, *, #63, .F. ) ;
#177 = CARTESIAN_POINT ( 'NONE',  ( 23.50000000000000000, 0.000000000000000000, 0.000000000000000000 ) ) ;
#178 = DIRECTION ( 'NONE',  ( 0.000000000000000000, 0.000000000000000000, -1.000000000000000000 ) ) ;
#179 = PRODUCT_CONTEXT ( 'NONE', #69, 'mechanical' ) ;
#180 = AXIS2_PLACEMENT_3D ( 'NONE', #76, #198, #5 ) ;
#181 = CYLINDRICAL_SURFACE ( 'NONE', #118, 0.1874999999999999722 ) ;
#182 = DIMENSIONAL_EXPONENTS ( 1.000000000000000000, 0.000000000000000000, 0.000000000000000000, 0.000000000000000000, 0.000000000000000000, 0.000000000000000000, 0.000000000000000000 ) ;
#183 = DIRECTION ( 'NONE',  ( 0.000000000000000000, 0.000000000000000000, 1.000000000000000000 ) ) ;
#184 = EDGE_LOOP ( 'NONE', ( #156, #72 ) ) ;
#185 = CARTESIAN_POINT ( 'NONE',  ( 23.50000000000000000, 0.000000000000000000, 0.000000000000000000 ) ) ;
#186 = CARTESIAN_POINT ( 'NONE',  ( -23.50000000000000000, 2.296212748401286801E-17, -0.1874999999999999722 ) ) ;
#187 = AXIS2_PLACEMENT_3D ( 'NONE', #129, #35, #178 ) ;
#188 = CARTESIAN_POINT ( 'NONE',  ( 23.50000000000000000, 3.061616997868383018E-17, -0.2500000000000000000 ) ) ;
#189 = ORIENTED_EDGE ( 'NONE', *, *, #1, .T. ) ;
#190 =( GEOMETRIC_REPRESENTATION_CONTEXT ( 3 ) GLOBAL_UNCERTAINTY_ASSIGNED_CONTEXT ( ( #83 ) ) GLOBAL_UNIT_ASSIGNED_CONTEXT ( ( #168, #151, #153 ) ) REPRESENTATION_CONTEXT ( 'NONE', 'WORKASPACE' ) );
#191 =( NAMED_UNIT ( * ) SI_UNIT ( $, .STERADIAN. ) SOLID_ANGLE_UNIT ( ) );
#192 = ORIENTED_EDGE ( 'NONE', *, *, #63, .T. ) ;
#193 = AXIS2_PLACEMENT_3D ( 'NONE', #213, #132, #166 ) ;
#194 = ORIENTED_EDGE ( 'NONE', *, *, #152, .F. ) ;
#195 = ORIENTED_EDGE ( 'NONE', *, *, #51, .T. ) ;
#196 = VERTEX_POINT ( 'NONE', #29 ) ;
#197 = CARTESIAN_POINT ( 'NONE',  ( 0.000000000000000000, 0.000000000000000000, 0.000000000000000000 ) ) ;
#198 = DIRECTION ( 'NONE',  ( 1.000000000000000000, 0.000000000000000000, 0.000000000000000000 ) ) ;
#199 = CARTESIAN_POINT ( 'NONE',  ( 23.50000000000000000, 0.000000000000000000, 0.000000000000000000 ) ) ;
#200 = COLOUR_RGB ( '',0.2980392156862745057, 0.2980392156862745057, 0.2980392156862745057 ) ;
#201 = ORIENTED_EDGE ( 'NONE', *, *, #55, .T. ) ;
#202 = DIRECTION ( 'NONE',  ( 1.000000000000000000, 0.000000000000000000, 0.000000000000000000 ) ) ;
#203 = DIRECTION ( 'NONE',  ( -1.000000000000000000, -0.000000000000000000, -0.000000000000000000 ) ) ;
#204 = CARTESIAN_POINT ( 'NONE',  ( -23.50000000000000000, 0.000000000000000000, 0.1874999999999999722 ) ) ;
#205 = CIRCLE ( 'NONE', #107, 0.1874999999999999722 ) ;
#206 = SURFACE_SIDE_STYLE ('',( #121 ) ) ;
#207 = PRODUCT_DEFINITION ( 'UNKNOWN', '', #49, #222 ) ;
#208 = AXIS2_PLACEMENT_3D ( 'NONE', #185, #59, #38 ) ;
#209 = VERTEX_POINT ( 'NONE', #204 ) ;
#210 = MANIFOLD_SOLID_BREP ( 'Extrude-Thin2', #57 ) ;
#211 = COLOUR_RGB ( '',0.2980392156862745057, 0.2980392156862745057, 0.2980392156862745057 ) ;
#212 = FACE_OUTER_BOUND ( 'NONE', #171, .T. ) ;
#213 = CARTESIAN_POINT ( 'NONE',  ( -23.50000000000000000, 0.000000000000000000, 0.000000000000000000 ) ) ;
#214 = DIRECTION ( 'NONE',  ( 0.000000000000000000, 0.000000000000000000, -1.000000000000000000 ) ) ;
#215 = CARTESIAN_POINT ( 'NONE',  ( 23.50000000000000000, 0.000000000000000000, 0.2500000000000000000 ) ) ;
#216 =( GEOMETRIC_REPRESENTATION_CONTEXT ( 3 ) GLOBAL_UNCERTAINTY_ASSIGNED_CONTEXT ( ( #135 ) ) GLOBAL_UNIT_ASSIGNED_CONTEXT ( ( #94, #15, #123 ) ) REPRESENTATION_CONTEXT ( 'NONE', 'WORKASPACE' ) );
#217 = CARTESIAN_POINT ( 'NONE',  ( 23.50000000000000000, 0.000000000000000000, 0.1874999999999999722 ) ) ;
#218 = LENGTH_MEASURE_WITH_UNIT ( LENGTH_MEASURE( 0.02539999999999999897 ), #105 );
#219 = AXIS2_PLACEMENT_3D ( 'NONE', #110, #26, #99 ) ;
#220 = UNCERTAINTY_MEASURE_WITH_UNIT (LENGTH_MEASURE( 1.000000000000000082E-05 ), #48, 'distance_accuracy_value', 'NONE');
#221 = DIRECTION ( 'NONE',  ( -1.000000000000000000, -0.000000000000000000, -0.000000000000000000 ) ) ;
#222 = PRODUCT_DEFINITION_CONTEXT ( 'detailed design', #157, 'design' ) ;
#223 = ORIENTED_EDGE ( 'NONE', *, *, #169, .F. ) ;
ENDSEC;
END-ISO-10303-21;
