ISO-10303-21;
HEADER;
FILE_DESCRIPTION (( 'STEP AP214' ),
    '1' );
FILE_NAME ('WCP-1259 Rev1.step',
    '2024-01-04T23:47:30',
    ( '' ),
    ( '' ),
    'SwSTEP 2.0',
    'SolidWorks 2022',
    '' );
FILE_SCHEMA (( 'AUTOMOTIVE_DESIGN' ));
ENDSEC;

DATA;
#1 = FACE_OUTER_BOUND ( 'NONE', #6, .T. ) ;
#2 = AXIS2_PLACEMENT_3D ( 'NONE', #180, #195, #92 ) ;
#3 = SURFACE_SIDE_STYLE ('',( #109 ) ) ;
#4 = SHAPE_DEFINITION_REPRESENTATION ( #88, #10 ) ;
#5 = ORIENTED_EDGE ( 'NONE', *, *, #113, .T. ) ;
#6 = EDGE_LOOP ( 'NONE', ( #120, #190, #11, #132 ) ) ;
#7 =( NAMED_UNIT ( * ) PLANE_ANGLE_UNIT ( ) SI_UNIT ( $, .RADIAN. ) );
#8 = EDGE_LOOP ( 'NONE', ( #21, #189, #23, #94 ) ) ;
#9 = EDGE_LOOP ( 'NONE', ( #167, #5 ) ) ;
#10 = ADVANCED_BREP_SHAPE_REPRESENTATION ( 'WCP-1259 Rev1', ( #215, #77 ), #22 ) ;
#11 = ORIENTED_EDGE ( 'NONE', *, *, #133, .T. ) ;
#12 = CARTESIAN_POINT ( 'NONE',  ( 23.50000000000000000, 0.000000000000000000, 0.06250000000000000000 ) ) ;
#13 = DIRECTION ( 'NONE',  ( 0.000000000000000000, 0.000000000000000000, -1.000000000000000000 ) ) ;
#14 = DIRECTION ( 'NONE',  ( -1.000000000000000000, -0.000000000000000000, -0.000000000000000000 ) ) ;
#15 = DIRECTION ( 'NONE',  ( 1.000000000000000000, 0.000000000000000000, 0.000000000000000000 ) ) ;
#16 = CARTESIAN_POINT ( 'NONE',  ( -23.50000000000000000, 0.000000000000000000, 0.1250000000000000000 ) ) ;
#17 = PRESENTATION_LAYER_ASSIGNMENT (  '', '', ( #126 ) ) ;
#18 = FILL_AREA_STYLE_COLOUR ( '', #53 ) ;
#19 =( CONVERSION_BASED_UNIT ( 'INCH', #206 ) LENGTH_UNIT ( ) NAMED_UNIT ( #171 ) );
#20 = SURFACE_STYLE_USAGE ( .BOTH. , #3 ) ;
#21 = ORIENTED_EDGE ( 'NONE', *, *, #95, .F. ) ;
#22 =( GEOMETRIC_REPRESENTATION_CONTEXT ( 3 ) GLOBAL_UNCERTAINTY_ASSIGNED_CONTEXT ( ( #201 ) ) GLOBAL_UNIT_ASSIGNED_CONTEXT ( ( #19, #34, #32 ) ) REPRESENTATION_CONTEXT ( 'NONE', 'WORKASPACE' ) );
#23 = ORIENTED_EDGE ( 'NONE', *, *, #70, .T. ) ;
#24 = ADVANCED_FACE ( 'NONE', ( #49 ), #186, .T. ) ;
#25 = VECTOR ( 'NONE', #156, 39.37007874015748143 ) ;
#26 = CARTESIAN_POINT ( 'NONE',  ( 23.50000000000000000, 0.000000000000000000, 0.000000000000000000 ) ) ;
#27 = PRODUCT ( 'WCP-1259 Rev1', 'WCP-1259 Rev1', '', ( #135 ) ) ;
#28 = CARTESIAN_POINT ( 'NONE',  ( -23.50000000000000000, 0.000000000000000000, 0.000000000000000000 ) ) ;
#29 = DIRECTION ( 'NONE',  ( -1.000000000000000000, -0.000000000000000000, -0.000000000000000000 ) ) ;
#30 = CARTESIAN_POINT ( 'NONE',  ( -23.50000000000000000, 0.000000000000000000, 0.000000000000000000 ) ) ;
#31 = CARTESIAN_POINT ( 'NONE',  ( 23.50000000000000000, 1.530808498934191509E-17, -0.1250000000000000000 ) ) ;
#32 =( NAMED_UNIT ( * ) SI_UNIT ( $, .STERADIAN. ) SOLID_ANGLE_UNIT ( ) );
#33 = CIRCLE ( 'NONE', #188, 0.1250000000000000000 ) ;
#34 =( NAMED_UNIT ( * ) PLANE_ANGLE_UNIT ( ) SI_UNIT ( $, .RADIAN. ) );
#35 = EDGE_CURVE ( 'NONE', #69, #136, #85, .T. ) ;
#36 = EDGE_CURVE ( 'NONE', #136, #69, #169, .T. ) ;
#37 = VERTEX_POINT ( 'NONE', #52 ) ;
#38 = ORIENTED_EDGE ( 'NONE', *, *, #70, .F. ) ;
#39 = VECTOR ( 'NONE', #29, 39.37007874015748143 ) ;
#40 = ORIENTED_EDGE ( 'NONE', *, *, #205, .T. ) ;
#41 = ORIENTED_EDGE ( 'NONE', *, *, #223, .F. ) ;
#42 = CARTESIAN_POINT ( 'NONE',  ( 23.50000000000000000, 0.000000000000000000, 0.000000000000000000 ) ) ;
#43 = CARTESIAN_POINT ( 'NONE',  ( -23.50000000000000000, 7.654042494670957545E-18, -0.06250000000000000000 ) ) ;
#44 = CYLINDRICAL_SURFACE ( 'NONE', #64, 0.1250000000000000000 ) ;
#45 = PRESENTATION_LAYER_ASSIGNMENT (  '', '', ( #107 ) ) ;
#46 = CARTESIAN_POINT ( 'NONE',  ( -23.50000000000000000, 0.000000000000000000, 0.000000000000000000 ) ) ;
#47 = DIRECTION ( 'NONE',  ( 0.000000000000000000, 0.000000000000000000, 1.000000000000000000 ) ) ;
#48 = COLOUR_RGB ( '',0.2980392156862745057, 0.2980392156862745057, 0.2980392156862745057 ) ;
#49 = FACE_OUTER_BOUND ( 'NONE', #83, .T. ) ;
#50 = DIRECTION ( 'NONE',  ( 0.000000000000000000, 0.000000000000000000, 1.000000000000000000 ) ) ;
#51 = ORIENTED_EDGE ( 'NONE', *, *, #142, .F. ) ;
#52 = CARTESIAN_POINT ( 'NONE',  ( 23.50000000000000000, 1.530808498934191509E-17, -0.1250000000000000000 ) ) ;
#53 = COLOUR_RGB ( '',0.2980392156862745057, 0.2980392156862745057, 0.2980392156862745057 ) ;
#54 = LINE ( 'NONE', #178, #39 ) ;
#55 = FACE_OUTER_BOUND ( 'NONE', #212, .T. ) ;
#56 = UNCERTAINTY_MEASURE_WITH_UNIT (LENGTH_MEASURE( 1.000000000000000082E-05 ), #146, 'distance_accuracy_value', 'NONE');
#57 = DIRECTION ( 'NONE',  ( 0.000000000000000000, 0.000000000000000000, -1.000000000000000000 ) ) ;
#58 = AXIS2_PLACEMENT_3D ( 'NONE', #129, #202, #60 ) ;
#59 = FACE_OUTER_BOUND ( 'NONE', #82, .T. ) ;
#60 = DIRECTION ( 'NONE',  ( 0.000000000000000000, 0.000000000000000000, -1.000000000000000000 ) ) ;
#61 = DIRECTION ( 'NONE',  ( -1.000000000000000000, -0.000000000000000000, -0.000000000000000000 ) ) ;
#62 = CLOSED_SHELL ( 'NONE', ( #93, #24, #166, #185, #116, #218 ) ) ;
#63 = FILL_AREA_STYLE ('',( #18 ) ) ;
#64 = AXIS2_PLACEMENT_3D ( 'NONE', #103, #104, #74 ) ;
#65 = VERTEX_POINT ( 'NONE', #43 ) ;
#66 = ORIENTED_EDGE ( 'NONE', *, *, #36, .T. ) ;
#67 = DIRECTION ( 'NONE',  ( 1.000000000000000000, 0.000000000000000000, 0.000000000000000000 ) ) ;
#68 = EDGE_CURVE ( 'NONE', #65, #99, #90, .T. ) ;
#69 = VERTEX_POINT ( 'NONE', #86 ) ;
#70 = EDGE_CURVE ( 'NONE', #154, #151, #106, .T. ) ;
#71 = DIRECTION ( 'NONE',  ( 1.000000000000000000, 0.000000000000000000, 0.000000000000000000 ) ) ;
#72 = DIMENSIONAL_EXPONENTS ( 1.000000000000000000, 0.000000000000000000, 0.000000000000000000, 0.000000000000000000, 0.000000000000000000, 0.000000000000000000, 0.000000000000000000 ) ;
#73 = DIRECTION ( 'NONE',  ( 0.000000000000000000, 0.000000000000000000, -1.000000000000000000 ) ) ;
#74 = DIRECTION ( 'NONE',  ( 0.000000000000000000, 0.000000000000000000, 1.000000000000000000 ) ) ;
#75 = CARTESIAN_POINT ( 'NONE',  ( 23.50000000000000000, 0.000000000000000000, 0.1250000000000000000 ) ) ;
#76 = CARTESIAN_POINT ( 'NONE',  ( -23.50000000000000000, 1.530808498934191509E-17, -0.1250000000000000000 ) ) ;
#77 = AXIS2_PLACEMENT_3D ( 'NONE', #207, #119, #67 ) ;
#78 =( LENGTH_UNIT ( ) NAMED_UNIT ( * ) SI_UNIT ( $, .METRE. ) );
#79 = LENGTH_MEASURE_WITH_UNIT ( LENGTH_MEASURE( 0.02539999999999999897 ), #130 );
#80 = ORIENTED_EDGE ( 'NONE', *, *, #223, .T. ) ;
#81 = ORIENTED_EDGE ( 'NONE', *, *, #105, .T. ) ;
#82 = EDGE_LOOP ( 'NONE', ( #66, #40, #41, #210 ) ) ;
#83 = EDGE_LOOP ( 'NONE', ( #98, #211, #81, #38 ) ) ;
#84 = ORIENTED_EDGE ( 'NONE', *, *, #105, .F. ) ;
#85 = CIRCLE ( 'NONE', #153, 0.06250000000000000000 ) ;
#86 = CARTESIAN_POINT ( 'NONE',  ( 23.50000000000000000, 7.654042494670957545E-18, -0.06250000000000000000 ) ) ;
#87 = FACE_OUTER_BOUND ( 'NONE', #8, .T. ) ;
#88 = PRODUCT_DEFINITION_SHAPE ( 'NONE', 'NONE',  #175 ) ;
#89 = CYLINDRICAL_SURFACE ( 'NONE', #184, 0.06250000000000000000 ) ;
#90 = CIRCLE ( 'NONE', #121, 0.06250000000000000000 ) ;
#91 = CARTESIAN_POINT ( 'NONE',  ( 23.50000000000000000, 0.000000000000000000, 0.000000000000000000 ) ) ;
#92 = DIRECTION ( 'NONE',  ( 0.000000000000000000, 0.000000000000000000, -1.000000000000000000 ) ) ;
#93 = ADVANCED_FACE ( 'NONE', ( #59 ), #124, .F. ) ;
#94 = ORIENTED_EDGE ( 'NONE', *, *, #142, .T. ) ;
#95 = EDGE_CURVE ( 'NONE', #37, #152, #101, .T. ) ;
#96 = AXIS2_PLACEMENT_3D ( 'NONE', #140, #159, #57 ) ;
#97 = CARTESIAN_POINT ( 'NONE',  ( 23.50000000000000000, 0.000000000000000000, 0.000000000000000000 ) ) ;
#98 = ORIENTED_EDGE ( 'NONE', *, *, #113, .F. ) ;
#99 = VERTEX_POINT ( 'NONE', #127 ) ;
#100 = AXIS2_PLACEMENT_3D ( 'NONE', #46, #143, #192 ) ;
#101 = LINE ( 'NONE', #31, #115 ) ;
#102 = AXIS2_PLACEMENT_3D ( 'NONE', #97, #170, #50 ) ;
#103 = CARTESIAN_POINT ( 'NONE',  ( 23.50000000000000000, 0.000000000000000000, 0.000000000000000000 ) ) ;
#104 = DIRECTION ( 'NONE',  ( -1.000000000000000000, -0.000000000000000000, -0.000000000000000000 ) ) ;
#105 = EDGE_CURVE ( 'NONE', #152, #151, #208, .T. ) ;
#106 = LINE ( 'NONE', #75, #111 ) ;
#107 = STYLED_ITEM ( 'NONE', ( #145 ), #10 ) ;
#108 = FACE_OUTER_BOUND ( 'NONE', #9, .T. ) ;
#109 = SURFACE_STYLE_FILL_AREA ( #114 ) ;
#110 = CARTESIAN_POINT ( 'NONE',  ( 23.50000000000000000, 0.000000000000000000, 0.000000000000000000 ) ) ;
#111 = VECTOR ( 'NONE', #14, 39.37007874015748143 ) ;
#112 =( NAMED_UNIT ( * ) SI_UNIT ( $, .STERADIAN. ) SOLID_ANGLE_UNIT ( ) );
#113 = EDGE_CURVE ( 'NONE', #37, #154, #33, .T. ) ;
#114 = FILL_AREA_STYLE ('',( #204 ) ) ;
#115 = VECTOR ( 'NONE', #122, 39.37007874015748143 ) ;
#116 = ADVANCED_FACE ( 'NONE', ( #87 ), #44, .T. ) ;
#117 = EDGE_LOOP ( 'NONE', ( #168, #134 ) ) ;
#118 = CIRCLE ( 'NONE', #144, 0.1250000000000000000 ) ;
#119 = DIRECTION ( 'NONE',  ( 0.000000000000000000, 0.000000000000000000, 1.000000000000000000 ) ) ;
#120 = ORIENTED_EDGE ( 'NONE', *, *, #205, .F. ) ;
#121 = AXIS2_PLACEMENT_3D ( 'NONE', #30, #181, #73 ) ;
#122 = DIRECTION ( 'NONE',  ( -1.000000000000000000, -0.000000000000000000, -0.000000000000000000 ) ) ;
#123 = DIRECTION ( 'NONE',  ( 0.000000000000000000, 0.000000000000000000, -1.000000000000000000 ) ) ;
#124 = CYLINDRICAL_SURFACE ( 'NONE', #221, 0.06250000000000000000 ) ;
#125 = FACE_BOUND ( 'NONE', #117, .T. ) ;
#126 = STYLED_ITEM ( 'NONE', ( #147 ), #215 ) ;
#127 = CARTESIAN_POINT ( 'NONE',  ( -23.50000000000000000, 0.000000000000000000, 0.06250000000000000000 ) ) ;
#128 = SURFACE_SIDE_STYLE ('',( #164 ) ) ;
#129 = CARTESIAN_POINT ( 'NONE',  ( -23.50000000000000000, 0.000000000000000000, 0.000000000000000000 ) ) ;
#130 =( LENGTH_UNIT ( ) NAMED_UNIT ( * ) SI_UNIT ( $, .METRE. ) );
#131 =( NAMED_UNIT ( * ) PLANE_ANGLE_UNIT ( ) SI_UNIT ( $, .RADIAN. ) );
#132 = ORIENTED_EDGE ( 'NONE', *, *, #68, .F. ) ;
#133 = EDGE_CURVE ( 'NONE', #136, #99, #219, .T. ) ;
#134 = ORIENTED_EDGE ( 'NONE', *, *, #35, .F. ) ;
#135 = PRODUCT_CONTEXT ( 'NONE', #160, 'mechanical' ) ;
#136 = VERTEX_POINT ( 'NONE', #12 ) ;
#137 = PLANE ( 'NONE',  #100 ) ;
#138 = AXIS2_PLACEMENT_3D ( 'NONE', #176, #71, #222 ) ;
#139 = DIRECTION ( 'NONE',  ( 0.000000000000000000, 0.000000000000000000, -1.000000000000000000 ) ) ;
#140 = CARTESIAN_POINT ( 'NONE',  ( 23.50000000000000000, 0.000000000000000000, 0.000000000000000000 ) ) ;
#141 = DIRECTION ( 'NONE',  ( 0.000000000000000000, 0.000000000000000000, 1.000000000000000000 ) ) ;
#142 = EDGE_CURVE ( 'NONE', #151, #152, #150, .T. ) ;
#143 = DIRECTION ( 'NONE',  ( 1.000000000000000000, 0.000000000000000000, 0.000000000000000000 ) ) ;
#144 = AXIS2_PLACEMENT_3D ( 'NONE', #42, #177, #13 ) ;
#145 = PRESENTATION_STYLE_ASSIGNMENT (( #20 ) ) ;
#146 =( CONVERSION_BASED_UNIT ( 'INCH', #165 ) LENGTH_UNIT ( ) NAMED_UNIT ( #72 ) );
#147 = PRESENTATION_STYLE_ASSIGNMENT (( #163 ) ) ;
#148 =( CONVERSION_BASED_UNIT ( 'INCH', #79 ) LENGTH_UNIT ( ) NAMED_UNIT ( #193 ) );
#149 = EDGE_LOOP ( 'NONE', ( #80, #173 ) ) ;
#150 = CIRCLE ( 'NONE', #203, 0.1250000000000000000 ) ;
#151 = VERTEX_POINT ( 'NONE', #16 ) ;
#152 = VERTEX_POINT ( 'NONE', #76 ) ;
#153 = AXIS2_PLACEMENT_3D ( 'NONE', #91, #214, #139 ) ;
#154 = VERTEX_POINT ( 'NONE', #194 ) ;
#155 = UNCERTAINTY_MEASURE_WITH_UNIT (LENGTH_MEASURE( 1.000000000000000082E-05 ), #148, 'distance_accuracy_value', 'NONE');
#156 = DIRECTION ( 'NONE',  ( -1.000000000000000000, -0.000000000000000000, -0.000000000000000000 ) ) ;
#157 = FACE_BOUND ( 'NONE', #149, .T. ) ;
#158 = MECHANICAL_DESIGN_GEOMETRIC_PRESENTATION_REPRESENTATION (  '', ( #126 ), #179 ) ;
#159 = DIRECTION ( 'NONE',  ( 1.000000000000000000, 0.000000000000000000, 0.000000000000000000 ) ) ;
#160 = APPLICATION_CONTEXT ( 'automotive_design' ) ;
#161 = CARTESIAN_POINT ( 'NONE',  ( 23.50000000000000000, 0.000000000000000000, 0.06250000000000000000 ) ) ;
#162 = CARTESIAN_POINT ( 'NONE',  ( 23.50000000000000000, 0.000000000000000000, 0.000000000000000000 ) ) ;
#163 = SURFACE_STYLE_USAGE ( .BOTH. , #128 ) ;
#164 = SURFACE_STYLE_FILL_AREA ( #63 ) ;
#165 = LENGTH_MEASURE_WITH_UNIT ( LENGTH_MEASURE( 0.02539999999999999897 ), #183 );
#166 = ADVANCED_FACE ( 'NONE', ( #108, #125 ), #199, .T. ) ;
#167 = ORIENTED_EDGE ( 'NONE', *, *, #187, .T. ) ;
#168 = ORIENTED_EDGE ( 'NONE', *, *, #36, .F. ) ;
#169 = CIRCLE ( 'NONE', #96, 0.06250000000000000000 ) ;
#170 = DIRECTION ( 'NONE',  ( -1.000000000000000000, -0.000000000000000000, -0.000000000000000000 ) ) ;
#171 = DIMENSIONAL_EXPONENTS ( 1.000000000000000000, 0.000000000000000000, 0.000000000000000000, 0.000000000000000000, 0.000000000000000000, 0.000000000000000000, 0.000000000000000000 ) ;
#172 = PRODUCT_RELATED_PRODUCT_CATEGORY ( 'part', '', ( #27 ) ) ;
#173 = ORIENTED_EDGE ( 'NONE', *, *, #68, .T. ) ;
#174 = MECHANICAL_DESIGN_GEOMETRIC_PRESENTATION_REPRESENTATION (  '', ( #107 ), #198 ) ;
#175 = PRODUCT_DEFINITION ( 'UNKNOWN', '', #191, #196 ) ;
#176 = CARTESIAN_POINT ( 'NONE',  ( 23.50000000000000000, 0.000000000000000000, 0.000000000000000000 ) ) ;
#177 = DIRECTION ( 'NONE',  ( 1.000000000000000000, 0.000000000000000000, 0.000000000000000000 ) ) ;
#178 = CARTESIAN_POINT ( 'NONE',  ( 23.50000000000000000, 7.654042494670957545E-18, -0.06250000000000000000 ) ) ;
#179 =( GEOMETRIC_REPRESENTATION_CONTEXT ( 3 ) GLOBAL_UNCERTAINTY_ASSIGNED_CONTEXT ( ( #56 ) ) GLOBAL_UNIT_ASSIGNED_CONTEXT ( ( #146, #131, #112 ) ) REPRESENTATION_CONTEXT ( 'NONE', 'WORKASPACE' ) );
#180 = CARTESIAN_POINT ( 'NONE',  ( -23.50000000000000000, 0.000000000000000000, 0.000000000000000000 ) ) ;
#181 = DIRECTION ( 'NONE',  ( 1.000000000000000000, 0.000000000000000000, 0.000000000000000000 ) ) ;
#182 = APPLICATION_PROTOCOL_DEFINITION ( 'draft international standard', 'automotive_design', 1998, #160 ) ;
#183 =( LENGTH_UNIT ( ) NAMED_UNIT ( * ) SI_UNIT ( $, .METRE. ) );
#184 = AXIS2_PLACEMENT_3D ( 'NONE', #110, #61, #47 ) ;
#185 = ADVANCED_FACE ( 'NONE', ( #55, #157 ), #137, .F. ) ;
#186 = CYLINDRICAL_SURFACE ( 'NONE', #102, 0.1250000000000000000 ) ;
#187 = EDGE_CURVE ( 'NONE', #154, #37, #118, .T. ) ;
#188 = AXIS2_PLACEMENT_3D ( 'NONE', #162, #200, #123 ) ;
#189 = ORIENTED_EDGE ( 'NONE', *, *, #187, .F. ) ;
#190 = ORIENTED_EDGE ( 'NONE', *, *, #35, .T. ) ;
#191 = PRODUCT_DEFINITION_FORMATION_WITH_SPECIFIED_SOURCE ( 'ANY', '', #27, .NOT_KNOWN. ) ;
#192 = DIRECTION ( 'NONE',  ( 0.000000000000000000, 0.000000000000000000, -1.000000000000000000 ) ) ;
#193 = DIMENSIONAL_EXPONENTS ( 1.000000000000000000, 0.000000000000000000, 0.000000000000000000, 0.000000000000000000, 0.000000000000000000, 0.000000000000000000, 0.000000000000000000 ) ;
#194 = CARTESIAN_POINT ( 'NONE',  ( 23.50000000000000000, 0.000000000000000000, 0.1250000000000000000 ) ) ;
#195 = DIRECTION ( 'NONE',  ( 1.000000000000000000, 0.000000000000000000, 0.000000000000000000 ) ) ;
#196 = PRODUCT_DEFINITION_CONTEXT ( 'detailed design', #197, 'design' ) ;
#197 = APPLICATION_CONTEXT ( 'automotive_design' ) ;
#198 =( GEOMETRIC_REPRESENTATION_CONTEXT ( 3 ) GLOBAL_UNCERTAINTY_ASSIGNED_CONTEXT ( ( #155 ) ) GLOBAL_UNIT_ASSIGNED_CONTEXT ( ( #148, #7, #209 ) ) REPRESENTATION_CONTEXT ( 'NONE', 'WORKASPACE' ) );
#199 = PLANE ( 'NONE',  #138 ) ;
#200 = DIRECTION ( 'NONE',  ( 1.000000000000000000, 0.000000000000000000, 0.000000000000000000 ) ) ;
#201 = UNCERTAINTY_MEASURE_WITH_UNIT (LENGTH_MEASURE( 1.000000000000000082E-05 ), #19, 'distance_accuracy_value', 'NONE');
#202 = DIRECTION ( 'NONE',  ( 1.000000000000000000, 0.000000000000000000, 0.000000000000000000 ) ) ;
#203 = AXIS2_PLACEMENT_3D ( 'NONE', #28, #15, #217 ) ;
#204 = FILL_AREA_STYLE_COLOUR ( '', #48 ) ;
#205 = EDGE_CURVE ( 'NONE', #69, #65, #54, .T. ) ;
#206 = LENGTH_MEASURE_WITH_UNIT ( LENGTH_MEASURE( 0.02539999999999999897 ), #78 );
#207 = CARTESIAN_POINT ( 'NONE',  ( 0.000000000000000000, 0.000000000000000000, 0.000000000000000000 ) ) ;
#208 = CIRCLE ( 'NONE', #2, 0.1250000000000000000 ) ;
#209 =( NAMED_UNIT ( * ) SI_UNIT ( $, .STERADIAN. ) SOLID_ANGLE_UNIT ( ) );
#210 = ORIENTED_EDGE ( 'NONE', *, *, #133, .F. ) ;
#211 = ORIENTED_EDGE ( 'NONE', *, *, #95, .T. ) ;
#212 = EDGE_LOOP ( 'NONE', ( #51, #84 ) ) ;
#213 = APPLICATION_PROTOCOL_DEFINITION ( 'draft international standard', 'automotive_design', 1998, #197 ) ;
#214 = DIRECTION ( 'NONE',  ( 1.000000000000000000, 0.000000000000000000, 0.000000000000000000 ) ) ;
#215 = MANIFOLD_SOLID_BREP ( 'Extrude-Thin2', #62 ) ;
#216 = CIRCLE ( 'NONE', #58, 0.06250000000000000000 ) ;
#217 = DIRECTION ( 'NONE',  ( 0.000000000000000000, 0.000000000000000000, -1.000000000000000000 ) ) ;
#218 = ADVANCED_FACE ( 'NONE', ( #1 ), #89, .F. ) ;
#219 = LINE ( 'NONE', #161, #25 ) ;
#220 = DIRECTION ( 'NONE',  ( -1.000000000000000000, -0.000000000000000000, -0.000000000000000000 ) ) ;
#221 = AXIS2_PLACEMENT_3D ( 'NONE', #26, #220, #141 ) ;
#222 = DIRECTION ( 'NONE',  ( 0.000000000000000000, 0.000000000000000000, -1.000000000000000000 ) ) ;
#223 = EDGE_CURVE ( 'NONE', #99, #65, #216, .T. ) ;
ENDSEC;
END-ISO-10303-21;
