ISO-10303-21;
HEADER;
FILE_DESCRIPTION (( 'STEP AP214' ),
    '1' );
FILE_NAME ('WCP-1022 Rev1.step',
    '2023-12-29T01:06:03',
    ( '' ),
    ( '' ),
    'SwSTEP 2.0',
    'SolidWorks 2022',
    '' );
FILE_SCHEMA (( 'AUTOMOTIVE_DESIGN' ));
ENDSEC;

DATA;
#1 = UNCERTAINTY_MEASURE_WITH_UNIT (LENGTH_MEASURE( 1.000000000000000082E-05 ), #333, 'distance_accuracy_value', 'NONE');
#2 = CARTESIAN_POINT ( 'NONE',  ( 23.50000000000000000, 0.3749999999999999445, -0.3749999999999999445 ) ) ;
#3 = CARTESIAN_POINT ( 'NONE',  ( -23.50000000000000000, 0.3749999999999999445, 0.3749999999999999445 ) ) ;
#4 = ORIENTED_EDGE ( 'NONE', *, *, #259, .T. ) ;
#5 = ADVANCED_BREP_SHAPE_REPRESENTATION ( 'WCP-1022 Rev1', ( #345, #134 ), #162 ) ;
#6 = DIRECTION ( 'NONE',  ( 0.000000000000000000, 0.000000000000000000, 1.000000000000000000 ) ) ;
#7 = VECTOR ( 'NONE', #250, 39.37007874015748143 ) ;
#8 = VECTOR ( 'NONE', #25, 39.37007874015748143 ) ;
#9 = DIRECTION ( 'NONE',  ( 0.000000000000000000, 0.000000000000000000, -1.000000000000000000 ) ) ;
#10 = ORIENTED_EDGE ( 'NONE', *, *, #212, .T. ) ;
#11 = EDGE_CURVE ( 'NONE', #123, #227, #146, .T. ) ;
#12 =( LENGTH_UNIT ( ) NAMED_UNIT ( * ) SI_UNIT ( $, .METRE. ) );
#13 = EDGE_LOOP ( 'NONE', ( #226, #92, #189, #116 ) ) ;
#14 = VERTEX_POINT ( 'NONE', #24 ) ;
#15 = VECTOR ( 'NONE', #9, 39.37007874015748143 ) ;
#16 = EDGE_LOOP ( 'NONE', ( #43, #71, #253, #100 ) ) ;
#17 = LENGTH_MEASURE_WITH_UNIT ( LENGTH_MEASURE( 0.02539999999999999897 ), #12 );
#18 = VERTEX_POINT ( 'NONE', #151 ) ;
#19 = SURFACE_STYLE_USAGE ( .BOTH. , #165 ) ;
#20 = VERTEX_POINT ( 'NONE', #75 ) ;
#21 = DIRECTION ( 'NONE',  ( 0.000000000000000000, 0.000000000000000000, 1.000000000000000000 ) ) ;
#22 = STYLED_ITEM ( 'NONE', ( #172 ), #5 ) ;
#23 = AXIS2_PLACEMENT_3D ( 'NONE', #239, #316, #204 ) ;
#24 = CARTESIAN_POINT ( 'NONE',  ( 23.50000000000000000, -0.3749999999999999445, -0.3749999999999999445 ) ) ;
#25 = DIRECTION ( 'NONE',  ( 0.000000000000000000, 1.000000000000000000, 0.000000000000000000 ) ) ;
#26 = LINE ( 'NONE', #104, #238 ) ;
#27 = PRESENTATION_LAYER_ASSIGNMENT (  '', '', ( #22 ) ) ;
#28 = CARTESIAN_POINT ( 'NONE',  ( -23.50000000000000000, -0.5000000000000000000, -0.5000000000000000000 ) ) ;
#29 = CARTESIAN_POINT ( 'NONE',  ( 23.50000000000000000, 0.3749999999999999445, 0.000000000000000000 ) ) ;
#30 = CARTESIAN_POINT ( 'NONE',  ( -23.50000000000000000, -0.5000000000000000000, 0.5000000000000000000 ) ) ;
#31 = EDGE_CURVE ( 'NONE', #86, #322, #332, .T. ) ;
#32 = LINE ( 'NONE', #188, #121 ) ;
#33 = PRODUCT_DEFINITION_FORMATION_WITH_SPECIFIED_SOURCE ( 'ANY', '', #96, .NOT_KNOWN. ) ;
#34 = VECTOR ( 'NONE', #306, 39.37007874015748143 ) ;
#35 = CARTESIAN_POINT ( 'NONE',  ( -23.50000000000000000, 0.3749999999999999445, -0.3749999999999999445 ) ) ;
#36 = ORIENTED_EDGE ( 'NONE', *, *, #152, .F. ) ;
#37 = CARTESIAN_POINT ( 'NONE',  ( 23.50000000000000000, -0.5000000000000000000, 0.5000000000000000000 ) ) ;
#38 = CARTESIAN_POINT ( 'NONE',  ( -23.50000000000000000, -0.3749999999999999445, 0.000000000000000000 ) ) ;
#39 = EDGE_CURVE ( 'NONE', #280, #101, #308, .T. ) ;
#40 = VECTOR ( 'NONE', #218, 39.37007874015748143 ) ;
#41 = FILL_AREA_STYLE_COLOUR ( '', #231 ) ;
#42 = SURFACE_STYLE_USAGE ( .BOTH. , #279 ) ;
#43 = ORIENTED_EDGE ( 'NONE', *, *, #241, .F. ) ;
#44 = ADVANCED_FACE ( 'NONE', ( #107 ), #156, .T. ) ;
#45 = ORIENTED_EDGE ( 'NONE', *, *, #339, .F. ) ;
#46 = VECTOR ( 'NONE', #197, 39.37007874015748143 ) ;
#47 = EDGE_LOOP ( 'NONE', ( #173, #228, #283, #331 ) ) ;
#48 = EDGE_LOOP ( 'NONE', ( #164, #175, #145, #324 ) ) ;
#49 = CARTESIAN_POINT ( 'NONE',  ( 0.000000000000000000, 0.000000000000000000, 0.000000000000000000 ) ) ;
#50 = ORIENTED_EDGE ( 'NONE', *, *, #294, .F. ) ;
#51 = FACE_OUTER_BOUND ( 'NONE', #13, .T. ) ;
#52 = CARTESIAN_POINT ( 'NONE',  ( 23.50000000000000000, -0.5000000000000000000, -0.5000000000000000000 ) ) ;
#53 = FACE_OUTER_BOUND ( 'NONE', #16, .T. ) ;
#54 = PRESENTATION_LAYER_ASSIGNMENT (  '', '', ( #200 ) ) ;
#55 = CARTESIAN_POINT ( 'NONE',  ( -23.50000000000000000, -0.3749999999999999445, -0.3749999999999999445 ) ) ;
#56 = PLANE ( 'NONE',  #326 ) ;
#57 = EDGE_CURVE ( 'NONE', #63, #86, #83, .T. ) ;
#58 = FILL_AREA_STYLE_COLOUR ( '', #140 ) ;
#59 = VERTEX_POINT ( 'NONE', #207 ) ;
#60 = DIRECTION ( 'NONE',  ( 0.000000000000000000, 0.000000000000000000, 1.000000000000000000 ) ) ;
#61 = ORIENTED_EDGE ( 'NONE', *, *, #187, .T. ) ;
#62 = CARTESIAN_POINT ( 'NONE',  ( -23.50000000000000000, -0.5000000000000000000, 0.5000000000000000000 ) ) ;
#63 = VERTEX_POINT ( 'NONE', #313 ) ;
#64 = FACE_OUTER_BOUND ( 'NONE', #258, .T. ) ;
#65 = LINE ( 'NONE', #85, #336 ) ;
#66 = VECTOR ( 'NONE', #344, 39.37007874015748143 ) ;
#67 = CARTESIAN_POINT ( 'NONE',  ( 23.50000000000000000, -0.5000000000000000000, 0.5000000000000000000 ) ) ;
#68 = ORIENTED_EDGE ( 'NONE', *, *, #294, .T. ) ;
#69 = EDGE_CURVE ( 'NONE', #14, #63, #102, .T. ) ;
#70 = ORIENTED_EDGE ( 'NONE', *, *, #259, .F. ) ;
#71 = ORIENTED_EDGE ( 'NONE', *, *, #288, .F. ) ;
#72 = SHAPE_DEFINITION_REPRESENTATION ( #143, #5 ) ;
#73 =( CONVERSION_BASED_UNIT ( 'INCH', #254 ) LENGTH_UNIT ( ) NAMED_UNIT ( #248 ) );
#74 = ORIENTED_EDGE ( 'NONE', *, *, #276, .T. ) ;
#75 = CARTESIAN_POINT ( 'NONE',  ( -23.50000000000000000, -0.3749999999999999445, 0.3749999999999999445 ) ) ;
#76 = EDGE_CURVE ( 'NONE', #335, #14, #287, .T. ) ;
#77 = PLANE ( 'NONE',  #292 ) ;
#78 = APPLICATION_CONTEXT ( 'automotive_design' ) ;
#79 = CARTESIAN_POINT ( 'NONE',  ( 23.50000000000000000, 0.000000000000000000, 0.000000000000000000 ) ) ;
#80 = DIRECTION ( 'NONE',  ( 0.000000000000000000, -1.000000000000000000, 0.000000000000000000 ) ) ;
#81 = CARTESIAN_POINT ( 'NONE',  ( 23.50000000000000000, -0.5000000000000000000, 0.5000000000000000000 ) ) ;
#82 =( GEOMETRIC_REPRESENTATION_CONTEXT ( 3 ) GLOBAL_UNCERTAINTY_ASSIGNED_CONTEXT ( ( #1 ) ) GLOBAL_UNIT_ASSIGNED_CONTEXT ( ( #333, #174, #284 ) ) REPRESENTATION_CONTEXT ( 'NONE', 'WORKASPACE' ) );
#83 = LINE ( 'NONE', #29, #304 ) ;
#84 = CARTESIAN_POINT ( 'NONE',  ( 23.50000000000000000, -0.3749999999999999445, -0.3749999999999999445 ) ) ;
#85 = CARTESIAN_POINT ( 'NONE',  ( -23.50000000000000000, -0.5000000000000000000, -0.5000000000000000000 ) ) ;
#86 = VERTEX_POINT ( 'NONE', #185 ) ;
#87 = PLANE ( 'NONE',  #147 ) ;
#88 = EDGE_LOOP ( 'NONE', ( #297, #45, #124, #68 ) ) ;
#89 = CARTESIAN_POINT ( 'NONE',  ( -23.50000000000000000, 0.5000000000000000000, -0.5000000000000000000 ) ) ;
#90 = CARTESIAN_POINT ( 'NONE',  ( 23.50000000000000000, 0.000000000000000000, -0.3749999999999999445 ) ) ;
#91 = ADVANCED_FACE ( 'NONE', ( #127 ), #56, .F. ) ;
#92 = ORIENTED_EDGE ( 'NONE', *, *, #179, .T. ) ;
#93 = VECTOR ( 'NONE', #215, 39.37007874015748143 ) ;
#94 =( NAMED_UNIT ( * ) SI_UNIT ( $, .STERADIAN. ) SOLID_ANGLE_UNIT ( ) );
#95 = CARTESIAN_POINT ( 'NONE',  ( 23.50000000000000000, 0.3749999999999999445, 0.3749999999999999445 ) ) ;
#96 = PRODUCT ( 'WCP-1022 Rev1', 'WCP-1022 Rev1', '', ( #201 ) ) ;
#97 =( CONVERSION_BASED_UNIT ( 'INCH', #118 ) LENGTH_UNIT ( ) NAMED_UNIT ( #299 ) );
#98 = ORIENTED_EDGE ( 'NONE', *, *, #301, .T. ) ;
#99 = FILL_AREA_STYLE ('',( #41 ) ) ;
#100 = ORIENTED_EDGE ( 'NONE', *, *, #31, .T. ) ;
#101 = VERTEX_POINT ( 'NONE', #28 ) ;
#102 = LINE ( 'NONE', #108, #8 ) ;
#103 = ADVANCED_FACE ( 'NONE', ( #51, #159 ), #343, .T. ) ;
#104 = CARTESIAN_POINT ( 'NONE',  ( 23.50000000000000000, -0.3749999999999999445, 0.3749999999999999445 ) ) ;
#105 = VECTOR ( 'NONE', #295, 39.37007874015748143 ) ;
#106 = CARTESIAN_POINT ( 'NONE',  ( 23.50000000000000000, 0.000000000000000000, 0.3749999999999999445 ) ) ;
#107 = FACE_OUTER_BOUND ( 'NONE', #177, .T. ) ;
#108 = CARTESIAN_POINT ( 'NONE',  ( 23.50000000000000000, 0.000000000000000000, -0.3749999999999999445 ) ) ;
#109 = ADVANCED_FACE ( 'NONE', ( #208 ), #314, .T. ) ;
#110 = DIRECTION ( 'NONE',  ( -0.000000000000000000, -1.000000000000000000, -0.000000000000000000 ) ) ;
#111 = APPLICATION_CONTEXT ( 'automotive_design' ) ;
#112 = CARTESIAN_POINT ( 'NONE',  ( 23.50000000000000000, -0.5000000000000000000, 0.5000000000000000000 ) ) ;
#113 = CARTESIAN_POINT ( 'NONE',  ( 23.50000000000000000, -0.5000000000000000000, 0.5000000000000000000 ) ) ;
#114 = CARTESIAN_POINT ( 'NONE',  ( -23.50000000000000000, 0.000000000000000000, -0.3749999999999999445 ) ) ;
#115 = LINE ( 'NONE', #84, #120 ) ;
#116 = ORIENTED_EDGE ( 'NONE', *, *, #232, .T. ) ;
#117 = ADVANCED_FACE ( 'NONE', ( #236 ), #77, .F. ) ;
#118 = LENGTH_MEASURE_WITH_UNIT ( LENGTH_MEASURE( 0.02539999999999999897 ), #148 );
#119 = ORIENTED_EDGE ( 'NONE', *, *, #11, .F. ) ;
#120 = VECTOR ( 'NONE', #302, 39.37007874015748143 ) ;
#121 = VECTOR ( 'NONE', #136, 39.37007874015748143 ) ;
#122 = DIRECTION ( 'NONE',  ( 0.000000000000000000, -0.000000000000000000, 1.000000000000000000 ) ) ;
#123 = VERTEX_POINT ( 'NONE', #52 ) ;
#124 = ORIENTED_EDGE ( 'NONE', *, *, #252, .F. ) ;
#125 = PRESENTATION_STYLE_ASSIGNMENT (( #19 ) ) ;
#126 = ORIENTED_EDGE ( 'NONE', *, *, #57, .F. ) ;
#127 = FACE_OUTER_BOUND ( 'NONE', #88, .T. ) ;
#128 = ADVANCED_FACE ( 'NONE', ( #235, #268 ), #240, .F. ) ;
#129 = DIRECTION ( 'NONE',  ( -1.000000000000000000, 0.000000000000000000, -0.000000000000000000 ) ) ;
#130 = DIRECTION ( 'NONE',  ( 0.000000000000000000, 0.000000000000000000, -1.000000000000000000 ) ) ;
#131 = DIRECTION ( 'NONE',  ( 0.000000000000000000, 0.000000000000000000, -1.000000000000000000 ) ) ;
#132 = CARTESIAN_POINT ( 'NONE',  ( 23.50000000000000000, 0.5000000000000000000, 0.5000000000000000000 ) ) ;
#133 = DIRECTION ( 'NONE',  ( 0.000000000000000000, 0.000000000000000000, 1.000000000000000000 ) ) ;
#134 = AXIS2_PLACEMENT_3D ( 'NONE', #49, #21, #178 ) ;
#135 = FACE_OUTER_BOUND ( 'NONE', #47, .T. ) ;
#136 = DIRECTION ( 'NONE',  ( 0.000000000000000000, 0.000000000000000000, 1.000000000000000000 ) ) ;
#137 = LINE ( 'NONE', #112, #190 ) ;
#138 = ORIENTED_EDGE ( 'NONE', *, *, #161, .F. ) ;
#139 = DIRECTION ( 'NONE',  ( 0.000000000000000000, 1.000000000000000000, 0.000000000000000000 ) ) ;
#140 = COLOUR_RGB ( '',0.8666666666666666963, 0.9098039215686274384, 1.000000000000000000 ) ;
#141 = AXIS2_PLACEMENT_3D ( 'NONE', #183, #341, #291 ) ;
#142 = DIRECTION ( 'NONE',  ( -0.000000000000000000, 1.000000000000000000, 0.000000000000000000 ) ) ;
#143 = PRODUCT_DEFINITION_SHAPE ( 'NONE', 'NONE',  #273 ) ;
#144 =( LENGTH_UNIT ( ) NAMED_UNIT ( * ) SI_UNIT ( $, .METRE. ) );
#145 = ORIENTED_EDGE ( 'NONE', *, *, #232, .F. ) ;
#146 = LINE ( 'NONE', #334, #34 ) ;
#147 = AXIS2_PLACEMENT_3D ( 'NONE', #67, #142, #122 ) ;
#148 =( LENGTH_UNIT ( ) NAMED_UNIT ( * ) SI_UNIT ( $, .METRE. ) );
#149 = ORIENTED_EDGE ( 'NONE', *, *, #170, .F. ) ;
#150 = EDGE_LOOP ( 'NONE', ( #74, #285, #196, #61 ) ) ;
#151 = CARTESIAN_POINT ( 'NONE',  ( 23.50000000000000000, -0.5000000000000000000, 0.5000000000000000000 ) ) ;
#152 = EDGE_CURVE ( 'NONE', #322, #20, #155, .T. ) ;
#153 = VECTOR ( 'NONE', #340, 39.37007874015748143 ) ;
#154 = CARTESIAN_POINT ( 'NONE',  ( -23.50000000000000000, 0.000000000000000000, 0.000000000000000000 ) ) ;
#155 = LINE ( 'NONE', #293, #66 ) ;
#156 = PLANE ( 'NONE',  #191 ) ;
#157 = LINE ( 'NONE', #267, #337 ) ;
#158 = ADVANCED_FACE ( 'NONE', ( #53 ), #181, .T. ) ;
#159 = FACE_BOUND ( 'NONE', #311, .T. ) ;
#160 = LINE ( 'NONE', #30, #315 ) ;
#161 = EDGE_CURVE ( 'NONE', #335, #20, #26, .T. ) ;
#162 =( GEOMETRIC_REPRESENTATION_CONTEXT ( 3 ) GLOBAL_UNCERTAINTY_ASSIGNED_CONTEXT ( ( #249 ) ) GLOBAL_UNIT_ASSIGNED_CONTEXT ( ( #73, #305, #222 ) ) REPRESENTATION_CONTEXT ( 'NONE', 'WORKASPACE' ) );
#163 = CARTESIAN_POINT ( 'NONE',  ( 23.50000000000000000, -0.3749999999999999445, 0.3749999999999999445 ) ) ;
#164 = ORIENTED_EDGE ( 'NONE', *, *, #39, .T. ) ;
#165 = SURFACE_SIDE_STYLE ('',( #298 ) ) ;
#166 = LINE ( 'NONE', #37, #15 ) ;
#167 = LINE ( 'NONE', #2, #255 ) ;
#168 =( GEOMETRIC_REPRESENTATION_CONTEXT ( 3 ) GLOBAL_UNCERTAINTY_ASSIGNED_CONTEXT ( ( #266 ) ) GLOBAL_UNIT_ASSIGNED_CONTEXT ( ( #97, #229, #94 ) ) REPRESENTATION_CONTEXT ( 'NONE', 'WORKASPACE' ) );
#169 = VECTOR ( 'NONE', #309, 39.37007874015748143 ) ;
#170 = EDGE_CURVE ( 'NONE', #227, #260, #290, .T. ) ;
#171 = VERTEX_POINT ( 'NONE', #55 ) ;
#172 = PRESENTATION_STYLE_ASSIGNMENT (( #42 ) ) ;
#173 = ORIENTED_EDGE ( 'NONE', *, *, #276, .F. ) ;
#174 =( NAMED_UNIT ( * ) PLANE_ANGLE_UNIT ( ) SI_UNIT ( $, .RADIAN. ) );
#175 = ORIENTED_EDGE ( 'NONE', *, *, #301, .F. ) ;
#176 = FACE_OUTER_BOUND ( 'NONE', #48, .T. ) ;
#177 = EDGE_LOOP ( 'NONE', ( #36, #195, #286, #281 ) ) ;
#178 = DIRECTION ( 'NONE',  ( 1.000000000000000000, 0.000000000000000000, 0.000000000000000000 ) ) ;
#179 = EDGE_CURVE ( 'NONE', #227, #246, #157, .T. ) ;
#180 = VERTEX_POINT ( 'NONE', #35 ) ;
#181 = PLANE ( 'NONE',  #141 ) ;
#182 = DIRECTION ( 'NONE',  ( -1.000000000000000000, 0.000000000000000000, -0.000000000000000000 ) ) ;
#183 = CARTESIAN_POINT ( 'NONE',  ( 23.50000000000000000, 0.3749999999999999445, 0.000000000000000000 ) ) ;
#184 = DIRECTION ( 'NONE',  ( 0.000000000000000000, 0.000000000000000000, -1.000000000000000000 ) ) ;
#185 = CARTESIAN_POINT ( 'NONE',  ( 23.50000000000000000, 0.3749999999999999445, 0.3749999999999999445 ) ) ;
#186 = CARTESIAN_POINT ( 'NONE',  ( 23.50000000000000000, 0.000000000000000000, 0.3749999999999999445 ) ) ;
#187 = EDGE_CURVE ( 'NONE', #20, #171, #247, .T. ) ;
#188 = CARTESIAN_POINT ( 'NONE',  ( -23.50000000000000000, 0.3749999999999999445, 0.000000000000000000 ) ) ;
#189 = ORIENTED_EDGE ( 'NONE', *, *, #252, .T. ) ;
#190 = VECTOR ( 'NONE', #110, 39.37007874015748143 ) ;
#191 = AXIS2_PLACEMENT_3D ( 'NONE', #106, #131, #182 ) ;
#192 = FILL_AREA_STYLE ('',( #58 ) ) ;
#193 = CARTESIAN_POINT ( 'NONE',  ( 23.50000000000000000, 0.5000000000000000000, 0.5000000000000000000 ) ) ;
#194 = DIRECTION ( 'NONE',  ( 1.000000000000000000, 0.000000000000000000, -0.000000000000000000 ) ) ;
#195 = ORIENTED_EDGE ( 'NONE', *, *, #31, .F. ) ;
#196 = ORIENTED_EDGE ( 'NONE', *, *, #152, .T. ) ;
#197 = DIRECTION ( 'NONE',  ( -1.000000000000000000, -0.000000000000000000, -0.000000000000000000 ) ) ;
#198 = ORIENTED_EDGE ( 'NONE', *, *, #179, .F. ) ;
#199 = EDGE_LOOP ( 'NONE', ( #4, #50, #198, #272 ) ) ;
#200 = STYLED_ITEM ( 'NONE', ( #125 ), #345 ) ;
#201 = PRODUCT_CONTEXT ( 'NONE', #111, 'mechanical' ) ;
#202 = ORIENTED_EDGE ( 'NONE', *, *, #278, .T. ) ;
#203 = DIRECTION ( 'NONE',  ( 0.000000000000000000, 0.000000000000000000, 1.000000000000000000 ) ) ;
#204 = DIRECTION ( 'NONE',  ( 0.000000000000000000, -0.000000000000000000, 1.000000000000000000 ) ) ;
#205 = VECTOR ( 'NONE', #6, 39.37007874015748143 ) ;
#206 = AXIS2_PLACEMENT_3D ( 'NONE', #90, #133, #277 ) ;
#207 = CARTESIAN_POINT ( 'NONE',  ( -23.50000000000000000, 0.5000000000000000000, 0.5000000000000000000 ) ) ;
#208 = FACE_OUTER_BOUND ( 'NONE', #251, .T. ) ;
#209 = DIRECTION ( 'NONE',  ( 1.000000000000000000, 0.000000000000000000, 0.000000000000000000 ) ) ;
#210 = MECHANICAL_DESIGN_GEOMETRIC_PRESENTATION_REPRESENTATION (  '', ( #22 ), #82 ) ;
#211 = AXIS2_PLACEMENT_3D ( 'NONE', #154, #209, #184 ) ;
#212 = EDGE_CURVE ( 'NONE', #14, #171, #115, .T. ) ;
#213 = DIRECTION ( 'NONE',  ( -1.000000000000000000, -0.000000000000000000, -0.000000000000000000 ) ) ;
#214 = LINE ( 'NONE', #300, #7 ) ;
#215 = DIRECTION ( 'NONE',  ( -1.000000000000000000, -0.000000000000000000, -0.000000000000000000 ) ) ;
#216 = ORIENTED_EDGE ( 'NONE', *, *, #76, .T. ) ;
#217 = CLOSED_SHELL ( 'NONE', ( #103, #128, #312, #117, #91, #347, #243, #158, #44, #109 ) ) ;
#218 = DIRECTION ( 'NONE',  ( 0.000000000000000000, 1.000000000000000000, 0.000000000000000000 ) ) ;
#219 = ORIENTED_EDGE ( 'NONE', *, *, #224, .F. ) ;
#220 = LINE ( 'NONE', #193, #225 ) ;
#221 = ORIENTED_EDGE ( 'NONE', *, *, #69, .F. ) ;
#222 =( NAMED_UNIT ( * ) SI_UNIT ( $, .STERADIAN. ) SOLID_ANGLE_UNIT ( ) );
#223 = ORIENTED_EDGE ( 'NONE', *, *, #187, .F. ) ;
#224 = EDGE_CURVE ( 'NONE', #59, #280, #160, .T. ) ;
#225 = VECTOR ( 'NONE', #269, 39.37007874015748143 ) ;
#226 = ORIENTED_EDGE ( 'NONE', *, *, #11, .T. ) ;
#227 = VERTEX_POINT ( 'NONE', #346 ) ;
#228 = ORIENTED_EDGE ( 'NONE', *, *, #212, .F. ) ;
#229 =( NAMED_UNIT ( * ) PLANE_ANGLE_UNIT ( ) SI_UNIT ( $, .RADIAN. ) );
#230 = ORIENTED_EDGE ( 'NONE', *, *, #278, .F. ) ;
#231 = COLOUR_RGB ( '',0.8666666666666666963, 0.9098039215686274384, 1.000000000000000000 ) ;
#232 = EDGE_CURVE ( 'NONE', #18, #123, #166, .T. ) ;
#233 = CARTESIAN_POINT ( 'NONE',  ( 23.50000000000000000, 0.5000000000000000000, -0.5000000000000000000 ) ) ;
#234 = APPLICATION_PROTOCOL_DEFINITION ( 'draft international standard', 'automotive_design', 1998, #78 ) ;
#235 = FACE_OUTER_BOUND ( 'NONE', #310, .T. ) ;
#236 = FACE_OUTER_BOUND ( 'NONE', #199, .T. ) ;
#237 = PRODUCT_RELATED_PRODUCT_CATEGORY ( 'part', '', ( #96 ) ) ;
#238 = VECTOR ( 'NONE', #319, 39.37007874015748143 ) ;
#239 = CARTESIAN_POINT ( 'NONE',  ( 23.50000000000000000, -0.3749999999999999445, 0.000000000000000000 ) ) ;
#240 = PLANE ( 'NONE',  #211 ) ;
#241 = EDGE_CURVE ( 'NONE', #180, #322, #32, .T. ) ;
#242 = DIRECTION ( 'NONE',  ( 0.000000000000000000, 0.000000000000000000, -1.000000000000000000 ) ) ;
#243 = ADVANCED_FACE ( 'NONE', ( #135 ), #245, .T. ) ;
#244 = CARTESIAN_POINT ( 'NONE',  ( -23.50000000000000000, 0.5000000000000000000, 0.5000000000000000000 ) ) ;
#245 = PLANE ( 'NONE',  #206 ) ;
#246 = VERTEX_POINT ( 'NONE', #274 ) ;
#247 = LINE ( 'NONE', #38, #270 ) ;
#248 = DIMENSIONAL_EXPONENTS ( 1.000000000000000000, 0.000000000000000000, 0.000000000000000000, 0.000000000000000000, 0.000000000000000000, 0.000000000000000000, 0.000000000000000000 ) ;
#249 = UNCERTAINTY_MEASURE_WITH_UNIT (LENGTH_MEASURE( 1.000000000000000082E-05 ), #73, 'distance_accuracy_value', 'NONE');
#250 = DIRECTION ( 'NONE',  ( -1.000000000000000000, -0.000000000000000000, -0.000000000000000000 ) ) ;
#251 = EDGE_LOOP ( 'NONE', ( #223, #138, #216, #10 ) ) ;
#252 = EDGE_CURVE ( 'NONE', #246, #18, #137, .T. ) ;
#253 = ORIENTED_EDGE ( 'NONE', *, *, #57, .T. ) ;
#254 = LENGTH_MEASURE_WITH_UNIT ( LENGTH_MEASURE( 0.02539999999999999897 ), #144 );
#255 = VECTOR ( 'NONE', #213, 39.37007874015748143 ) ;
#256 = CARTESIAN_POINT ( 'NONE',  ( -23.50000000000000000, -0.5000000000000000000, 0.5000000000000000000 ) ) ;
#257 = ORIENTED_EDGE ( 'NONE', *, *, #318, .F. ) ;
#258 = EDGE_LOOP ( 'NONE', ( #202, #149, #119, #98 ) ) ;
#259 = EDGE_CURVE ( 'NONE', #260, #59, #327, .T. ) ;
#260 = VERTEX_POINT ( 'NONE', #89 ) ;
#261 = AXIS2_PLACEMENT_3D ( 'NONE', #79, #262, #130 ) ;
#262 = DIRECTION ( 'NONE',  ( 1.000000000000000000, 0.000000000000000000, 0.000000000000000000 ) ) ;
#263 = DIRECTION ( 'NONE',  ( 0.000000000000000000, -0.000000000000000000, -1.000000000000000000 ) ) ;
#264 = DIRECTION ( 'NONE',  ( 0.000000000000000000, 0.000000000000000000, -1.000000000000000000 ) ) ;
#265 = VECTOR ( 'NONE', #264, 39.37007874015748143 ) ;
#266 = UNCERTAINTY_MEASURE_WITH_UNIT (LENGTH_MEASURE( 1.000000000000000082E-05 ), #97, 'distance_accuracy_value', 'NONE');
#267 = CARTESIAN_POINT ( 'NONE',  ( 23.50000000000000000, 0.5000000000000000000, 0.5000000000000000000 ) ) ;
#268 = FACE_BOUND ( 'NONE', #150, .T. ) ;
#269 = DIRECTION ( 'NONE',  ( -1.000000000000000000, -0.000000000000000000, -0.000000000000000000 ) ) ;
#270 = VECTOR ( 'NONE', #242, 39.37007874015748143 ) ;
#271 = LINE ( 'NONE', #113, #93 ) ;
#272 = ORIENTED_EDGE ( 'NONE', *, *, #170, .T. ) ;
#273 = PRODUCT_DEFINITION ( 'UNKNOWN', '', #33, #320 ) ;
#274 = CARTESIAN_POINT ( 'NONE',  ( 23.50000000000000000, 0.5000000000000000000, 0.5000000000000000000 ) ) ;
#275 = DIMENSIONAL_EXPONENTS ( 1.000000000000000000, 0.000000000000000000, 0.000000000000000000, 0.000000000000000000, 0.000000000000000000, 0.000000000000000000, 0.000000000000000000 ) ;
#276 = EDGE_CURVE ( 'NONE', #171, #180, #323, .T. ) ;
#277 = DIRECTION ( 'NONE',  ( 1.000000000000000000, 0.000000000000000000, -0.000000000000000000 ) ) ;
#278 = EDGE_CURVE ( 'NONE', #101, #260, #65, .T. ) ;
#279 = SURFACE_SIDE_STYLE ('',( #307 ) ) ;
#280 = VERTEX_POINT ( 'NONE', #62 ) ;
#281 = ORIENTED_EDGE ( 'NONE', *, *, #161, .T. ) ;
#282 = AXIS2_PLACEMENT_3D ( 'NONE', #328, #60, #194 ) ;
#283 = ORIENTED_EDGE ( 'NONE', *, *, #69, .T. ) ;
#284 =( NAMED_UNIT ( * ) SI_UNIT ( $, .STERADIAN. ) SOLID_ANGLE_UNIT ( ) );
#285 = ORIENTED_EDGE ( 'NONE', *, *, #241, .T. ) ;
#286 = ORIENTED_EDGE ( 'NONE', *, *, #318, .T. ) ;
#287 = LINE ( 'NONE', #289, #265 ) ;
#288 = EDGE_CURVE ( 'NONE', #63, #180, #167, .T. ) ;
#289 = CARTESIAN_POINT ( 'NONE',  ( 23.50000000000000000, -0.3749999999999999445, 0.000000000000000000 ) ) ;
#290 = LINE ( 'NONE', #233, #153 ) ;
#291 = DIRECTION ( 'NONE',  ( 0.000000000000000000, -0.000000000000000000, -1.000000000000000000 ) ) ;
#292 = AXIS2_PLACEMENT_3D ( 'NONE', #132, #80, #263 ) ;
#293 = CARTESIAN_POINT ( 'NONE',  ( -23.50000000000000000, 0.000000000000000000, 0.3749999999999999445 ) ) ;
#294 = EDGE_CURVE ( 'NONE', #246, #59, #220, .T. ) ;
#295 = DIRECTION ( 'NONE',  ( 0.000000000000000000, -1.000000000000000000, 0.000000000000000000 ) ) ;
#296 = PLANE ( 'NONE',  #282 ) ;
#297 = ORIENTED_EDGE ( 'NONE', *, *, #224, .T. ) ;
#298 = SURFACE_STYLE_FILL_AREA ( #192 ) ;
#299 = DIMENSIONAL_EXPONENTS ( 1.000000000000000000, 0.000000000000000000, 0.000000000000000000, 0.000000000000000000, 0.000000000000000000, 0.000000000000000000, 0.000000000000000000 ) ;
#300 = CARTESIAN_POINT ( 'NONE',  ( 23.50000000000000000, -0.5000000000000000000, -0.5000000000000000000 ) ) ;
#301 = EDGE_CURVE ( 'NONE', #123, #101, #214, .T. ) ;
#302 = DIRECTION ( 'NONE',  ( -1.000000000000000000, -0.000000000000000000, -0.000000000000000000 ) ) ;
#303 = MECHANICAL_DESIGN_GEOMETRIC_PRESENTATION_REPRESENTATION (  '', ( #200 ), #168 ) ;
#304 = VECTOR ( 'NONE', #317, 39.37007874015748143 ) ;
#305 =( NAMED_UNIT ( * ) PLANE_ANGLE_UNIT ( ) SI_UNIT ( $, .RADIAN. ) );
#306 = DIRECTION ( 'NONE',  ( 0.000000000000000000, 1.000000000000000000, 0.000000000000000000 ) ) ;
#307 = SURFACE_STYLE_FILL_AREA ( #99 ) ;
#308 = LINE ( 'NONE', #256, #169 ) ;
#309 = DIRECTION ( 'NONE',  ( 0.000000000000000000, 0.000000000000000000, -1.000000000000000000 ) ) ;
#310 = EDGE_LOOP ( 'NONE', ( #230, #329, #219, #70 ) ) ;
#311 = EDGE_LOOP ( 'NONE', ( #126, #221, #338, #257 ) ) ;
#312 = ADVANCED_FACE ( 'NONE', ( #64 ), #296, .F. ) ;
#313 = CARTESIAN_POINT ( 'NONE',  ( 23.50000000000000000, 0.3749999999999999445, -0.3749999999999999445 ) ) ;
#314 = PLANE ( 'NONE',  #23 ) ;
#315 = VECTOR ( 'NONE', #325, 39.37007874015748143 ) ;
#316 = DIRECTION ( 'NONE',  ( -0.000000000000000000, 1.000000000000000000, 0.000000000000000000 ) ) ;
#317 = DIRECTION ( 'NONE',  ( 0.000000000000000000, 0.000000000000000000, 1.000000000000000000 ) ) ;
#318 = EDGE_CURVE ( 'NONE', #86, #335, #321, .T. ) ;
#319 = DIRECTION ( 'NONE',  ( -1.000000000000000000, -0.000000000000000000, -0.000000000000000000 ) ) ;
#320 = PRODUCT_DEFINITION_CONTEXT ( 'detailed design', #78, 'design' ) ;
#321 = LINE ( 'NONE', #186, #105 ) ;
#322 = VERTEX_POINT ( 'NONE', #3 ) ;
#323 = LINE ( 'NONE', #114, #40 ) ;
#324 = ORIENTED_EDGE ( 'NONE', *, *, #339, .T. ) ;
#325 = DIRECTION ( 'NONE',  ( -0.000000000000000000, -1.000000000000000000, -0.000000000000000000 ) ) ;
#326 = AXIS2_PLACEMENT_3D ( 'NONE', #81, #342, #129 ) ;
#327 = LINE ( 'NONE', #244, #205 ) ;
#328 = CARTESIAN_POINT ( 'NONE',  ( 23.50000000000000000, -0.5000000000000000000, -0.5000000000000000000 ) ) ;
#329 = ORIENTED_EDGE ( 'NONE', *, *, #39, .F. ) ;
#330 = APPLICATION_PROTOCOL_DEFINITION ( 'draft international standard', 'automotive_design', 1998, #111 ) ;
#331 = ORIENTED_EDGE ( 'NONE', *, *, #288, .T. ) ;
#332 = LINE ( 'NONE', #95, #46 ) ;
#333 =( CONVERSION_BASED_UNIT ( 'INCH', #17 ) LENGTH_UNIT ( ) NAMED_UNIT ( #275 ) );
#334 = CARTESIAN_POINT ( 'NONE',  ( 23.50000000000000000, -0.5000000000000000000, -0.5000000000000000000 ) ) ;
#335 = VERTEX_POINT ( 'NONE', #163 ) ;
#336 = VECTOR ( 'NONE', #139, 39.37007874015748143 ) ;
#337 = VECTOR ( 'NONE', #203, 39.37007874015748143 ) ;
#338 = ORIENTED_EDGE ( 'NONE', *, *, #76, .F. ) ;
#339 = EDGE_CURVE ( 'NONE', #18, #280, #271, .T. ) ;
#340 = DIRECTION ( 'NONE',  ( -1.000000000000000000, -0.000000000000000000, -0.000000000000000000 ) ) ;
#341 = DIRECTION ( 'NONE',  ( 0.000000000000000000, -1.000000000000000000, 0.000000000000000000 ) ) ;
#342 = DIRECTION ( 'NONE',  ( 0.000000000000000000, 0.000000000000000000, -1.000000000000000000 ) ) ;
#343 = PLANE ( 'NONE',  #261 ) ;
#344 = DIRECTION ( 'NONE',  ( 0.000000000000000000, -1.000000000000000000, 0.000000000000000000 ) ) ;
#345 = MANIFOLD_SOLID_BREP ( 'Extrude-Thin1', #217 ) ;
#346 = CARTESIAN_POINT ( 'NONE',  ( 23.50000000000000000, 0.5000000000000000000, -0.5000000000000000000 ) ) ;
#347 = ADVANCED_FACE ( 'NONE', ( #176 ), #87, .F. ) ;
ENDSEC;
END-ISO-10303-21;
