ISO-10303-21;
HEADER;
FILE_DESCRIPTION (( 'STEP AP214' ),
    '1' );
FILE_NAME ('WCP-1004 Rev1.step',
    '2023-12-22T21:48:34',
    ( '' ),
    ( '' ),
    'SwSTEP 2.0',
    'SolidWorks 2022',
    '' );
FILE_SCHEMA (( 'AUTOMOTIVE_DESIGN' ));
ENDSEC;

DATA;
#1 = CIRCLE ( 'NONE', #41, 0.5624999999999998890 ) ;
#2 = SURFACE_STYLE_FILL_AREA ( #29 ) ;
#3 = CARTESIAN_POINT ( 'NONE',  ( 0.5004999999999999449, 3.283198514686549673E-17, -0.1562500000000000000 ) ) ;
#4 = FACE_OUTER_BOUND ( 'NONE', #197, .T. ) ;
#5 =( NAMED_UNIT ( * ) PLANE_ANGLE_UNIT ( ) SI_UNIT ( $, .RADIAN. ) );
#6 = CARTESIAN_POINT ( 'NONE',  ( 0.000000000000000000, -2.846158715045951882E-17, -0.1562500000000000000 ) ) ;
#7 = EDGE_CURVE ( 'NONE', #260, #132, #282, .T. ) ;
#8 = ORIENTED_EDGE ( 'NONE', *, *, #91, .F. ) ;
#9 = CIRCLE ( 'NONE', #77, 0.6249999999999998890 ) ;
#10 = ADVANCED_FACE ( 'NONE', ( #246 ), #136, .T. ) ;
#11 = ORIENTED_EDGE ( 'NONE', *, *, #56, .T. ) ;
#12 = ORIENTED_EDGE ( 'NONE', *, *, #156, .T. ) ;
#13 = LINE ( 'NONE', #128, #233 ) ;
#14 = DIRECTION ( 'NONE',  ( -1.000000000000000000, 0.000000000000000000, 0.000000000000000000 ) ) ;
#15 = CIRCLE ( 'NONE', #251, 0.5624999999999998890 ) ;
#16 = DIRECTION ( 'NONE',  ( -1.000000000000000000, 0.000000000000000000, 0.000000000000000000 ) ) ;
#17 = AXIS2_PLACEMENT_3D ( 'NONE', #160, #181, #115 ) ;
#18 = CIRCLE ( 'NONE', #227, 0.5004999999999999449 ) ;
#19 = DIRECTION ( 'NONE',  ( -0.000000000000000000, -0.000000000000000000, -1.000000000000000000 ) ) ;
#20 = ORIENTED_EDGE ( 'NONE', *, *, #234, .F. ) ;
#21 = CARTESIAN_POINT ( 'NONE',  ( 0.000000000000000000, -2.846158715045951882E-17, -0.1562499999999999722 ) ) ;
#22 = LINE ( 'NONE', #280, #66 ) ;
#23 = AXIS2_PLACEMENT_3D ( 'NONE', #283, #273, #133 ) ;
#24 = PRODUCT_DEFINITION_FORMATION_WITH_SPECIFIED_SOURCE ( 'ANY', '', #155, .NOT_KNOWN. ) ;
#25 = MECHANICAL_DESIGN_GEOMETRIC_PRESENTATION_REPRESENTATION (  '', ( #291 ), #183 ) ;
#26 = EDGE_CURVE ( 'NONE', #179, #174, #199, .T. ) ;
#27 = SURFACE_STYLE_USAGE ( .BOTH. , #236 ) ;
#28 = DIRECTION ( 'NONE',  ( -0.000000000000000000, -0.000000000000000000, -1.000000000000000000 ) ) ;
#29 = FILL_AREA_STYLE ('',( #210 ) ) ;
#30 = FACE_BOUND ( 'NONE', #248, .T. ) ;
#31 = DIRECTION ( 'NONE',  ( -1.000000000000000000, 0.000000000000000000, 0.000000000000000000 ) ) ;
#32 = UNCERTAINTY_MEASURE_WITH_UNIT (LENGTH_MEASURE( 1.000000000000000082E-05 ), #82, 'distance_accuracy_value', 'NONE');
#33 = SURFACE_STYLE_FILL_AREA ( #218 ) ;
#34 = AXIS2_PLACEMENT_3D ( 'NONE', #96, #143, #285 ) ;
#35 = EDGE_LOOP ( 'NONE', ( #36, #154, #157, #176 ) ) ;
#36 = ORIENTED_EDGE ( 'NONE', *, *, #26, .F. ) ;
#37 = ADVANCED_FACE ( 'NONE', ( #111, #232 ), #67, .T. ) ;
#38 = EDGE_LOOP ( 'NONE', ( #127, #86 ) ) ;
#39 = DIRECTION ( 'NONE',  ( -0.000000000000000000, -0.000000000000000000, -1.000000000000000000 ) ) ;
#40 = CARTESIAN_POINT ( 'NONE',  ( 0.000000000000000000, -2.846158715045951882E-17, -0.1562500000000000000 ) ) ;
#41 = AXIS2_PLACEMENT_3D ( 'NONE', #175, #87, #200 ) ;
#42 = AXIS2_PLACEMENT_3D ( 'NONE', #40, #225, #14 ) ;
#43 = AXIS2_PLACEMENT_3D ( 'NONE', #142, #94, #123 ) ;
#44 = ORIENTED_EDGE ( 'NONE', *, *, #234, .T. ) ;
#45 = FACE_OUTER_BOUND ( 'NONE', #298, .T. ) ;
#46 = CYLINDRICAL_SURFACE ( 'NONE', #92, 0.6250000000000000000 ) ;
#47 = PRODUCT_CONTEXT ( 'NONE', #52, 'mechanical' ) ;
#48 = ADVANCED_FACE ( 'NONE', ( #302 ), #46, .T. ) ;
#49 = CARTESIAN_POINT ( 'NONE',  ( 0.000000000000000000, -2.846158715045951882E-17, -0.1562499999999999722 ) ) ;
#50 =( CONVERSION_BASED_UNIT ( 'INCH', #239 ) LENGTH_UNIT ( ) NAMED_UNIT ( #98 ) );
#51 = DIRECTION ( 'NONE',  ( -0.000000000000000000, -0.000000000000000000, -1.000000000000000000 ) ) ;
#52 = APPLICATION_CONTEXT ( 'automotive_design' ) ;
#53 = CARTESIAN_POINT ( 'NONE',  ( 0.000000000000000000, -2.846158715045951882E-17, -0.1562500000000000000 ) ) ;
#54 = DIRECTION ( 'NONE',  ( -0.000000000000000000, -0.000000000000000000, -1.000000000000000000 ) ) ;
#55 = DIRECTION ( 'NONE',  ( -1.000000000000000000, 0.000000000000000000, 0.000000000000000000 ) ) ;
#56 = EDGE_CURVE ( 'NONE', #221, #202, #22, .T. ) ;
#57 = ORIENTED_EDGE ( 'NONE', *, *, #177, .F. ) ;
#58 = CARTESIAN_POINT ( 'NONE',  ( 0.000000000000000000, -2.846158715045951882E-17, 0.1562500000000000000 ) ) ;
#59 = ORIENTED_EDGE ( 'NONE', *, *, #122, .T. ) ;
#60 = LINE ( 'NONE', #153, #101 ) ;
#61 = VERTEX_POINT ( 'NONE', #100 ) ;
#62 = EDGE_LOOP ( 'NONE', ( #195, #81 ) ) ;
#63 = DIRECTION ( 'NONE',  ( -0.000000000000000000, -0.000000000000000000, -1.000000000000000000 ) ) ;
#64 = ORIENTED_EDGE ( 'NONE', *, *, #170, .T. ) ;
#65 = CARTESIAN_POINT ( 'NONE',  ( 0.000000000000000000, -2.846158715045951882E-17, -0.1562500000000000000 ) ) ;
#66 = VECTOR ( 'NONE', #216, 39.37007874015748143 ) ;
#67 = PLANE ( 'NONE',  #17 ) ;
#68 = ADVANCED_FACE ( 'NONE', ( #257 ), #289, .T. ) ;
#69 = SHAPE_DEFINITION_REPRESENTATION ( #134, #80 ) ;
#70 =( NAMED_UNIT ( * ) PLANE_ANGLE_UNIT ( ) SI_UNIT ( $, .RADIAN. ) );
#71 = VECTOR ( 'NONE', #159, 39.37007874015748143 ) ;
#72 = DIRECTION ( 'NONE',  ( -0.000000000000000000, -0.000000000000000000, -1.000000000000000000 ) ) ;
#73 =( NAMED_UNIT ( * ) SI_UNIT ( $, .STERADIAN. ) SOLID_ANGLE_UNIT ( ) );
#74 =( LENGTH_UNIT ( ) NAMED_UNIT ( * ) SI_UNIT ( $, .METRE. ) );
#75 = DIRECTION ( 'NONE',  ( -1.000000000000000000, 0.000000000000000000, 0.000000000000000000 ) ) ;
#76 = STYLED_ITEM ( 'NONE', ( #258 ), #80 ) ;
#77 = AXIS2_PLACEMENT_3D ( 'NONE', #198, #245, #203 ) ;
#78 = EDGE_LOOP ( 'NONE', ( #223, #11, #129, #148 ) ) ;
#79 = CARTESIAN_POINT ( 'NONE',  ( 0.000000000000000000, -2.846158715045951882E-17, -0.1562500000000000000 ) ) ;
#80 = ADVANCED_BREP_SHAPE_REPRESENTATION ( 'WCP-1004 Rev1', ( #201, #34 ), #278 ) ;
#81 = ORIENTED_EDGE ( 'NONE', *, *, #170, .F. ) ;
#82 =( CONVERSION_BASED_UNIT ( 'INCH', #196 ) LENGTH_UNIT ( ) NAMED_UNIT ( #266 ) );
#83 = ORIENTED_EDGE ( 'NONE', *, *, #297, .T. ) ;
#84 = ORIENTED_EDGE ( 'NONE', *, *, #284, .F. ) ;
#85 = DIRECTION ( 'NONE',  ( -1.000000000000000000, 0.000000000000000000, 0.000000000000000000 ) ) ;
#86 = ORIENTED_EDGE ( 'NONE', *, *, #7, .F. ) ;
#87 = DIRECTION ( 'NONE',  ( -0.000000000000000000, -0.000000000000000000, -1.000000000000000000 ) ) ;
#88 = ORIENTED_EDGE ( 'NONE', *, *, #206, .T. ) ;
#89 = CARTESIAN_POINT ( 'NONE',  ( 0.6249999999999998890, 4.807883779625004738E-17, 0.09375000000000005551 ) ) ;
#90 = DIRECTION ( 'NONE',  ( -0.000000000000000000, -0.000000000000000000, -1.000000000000000000 ) ) ;
#91 = EDGE_CURVE ( 'NONE', #109, #174, #193, .T. ) ;
#92 = AXIS2_PLACEMENT_3D ( 'NONE', #254, #90, #139 ) ;
#93 = APPLICATION_PROTOCOL_DEFINITION ( 'draft international standard', 'automotive_design', 1998, #52 ) ;
#94 = DIRECTION ( 'NONE',  ( -0.000000000000000000, -0.000000000000000000, -1.000000000000000000 ) ) ;
#95 = LINE ( 'NONE', #186, #168 ) ;
#96 = CARTESIAN_POINT ( 'NONE',  ( 0.000000000000000000, 0.000000000000000000, 0.000000000000000000 ) ) ;
#97 = FACE_OUTER_BOUND ( 'NONE', #35, .T. ) ;
#98 = DIMENSIONAL_EXPONENTS ( 1.000000000000000000, 0.000000000000000000, 0.000000000000000000, 0.000000000000000000, 0.000000000000000000, 0.000000000000000000, 0.000000000000000000 ) ;
#99 = ORIENTED_EDGE ( 'NONE', *, *, #268, .T. ) ;
#100 = CARTESIAN_POINT ( 'NONE',  ( -0.5624999999999998890, -2.846158715045951882E-17, -0.1562499999999999722 ) ) ;
#101 = VECTOR ( 'NONE', #63, 39.37007874015748143 ) ;
#102 = AXIS2_PLACEMENT_3D ( 'NONE', #53, #51, #141 ) ;
#103 = DIRECTION ( 'NONE',  ( -0.000000000000000000, -0.000000000000000000, -1.000000000000000000 ) ) ;
#104 = ORIENTED_EDGE ( 'NONE', *, *, #56, .F. ) ;
#105 = PLANE ( 'NONE',  #205 ) ;
#106 = ORIENTED_EDGE ( 'NONE', *, *, #7, .T. ) ;
#107 = DIRECTION ( 'NONE',  ( -0.000000000000000000, -0.000000000000000000, -1.000000000000000000 ) ) ;
#108 = CIRCLE ( 'NONE', #23, 0.6249999999999998890 ) ;
#109 = VERTEX_POINT ( 'NONE', #237 ) ;
#110 = LINE ( 'NONE', #299, #71 ) ;
#111 = FACE_OUTER_BOUND ( 'NONE', #244, .T. ) ;
#112 = DIRECTION ( 'NONE',  ( -1.000000000000000000, 0.000000000000000000, 0.000000000000000000 ) ) ;
#113 = APPLICATION_CONTEXT ( 'automotive_design' ) ;
#114 = CIRCLE ( 'NONE', #219, 0.5004999999999999449 ) ;
#115 = DIRECTION ( 'NONE',  ( -1.000000000000000000, 0.000000000000000000, 0.000000000000000000 ) ) ;
#116 = PRESENTATION_LAYER_ASSIGNMENT (  '', '', ( #76 ) ) ;
#117 = VECTOR ( 'NONE', #19, 39.37007874015748143 ) ;
#118 = AXIS2_PLACEMENT_3D ( 'NONE', #214, #72, #31 ) ;
#119 = CARTESIAN_POINT ( 'NONE',  ( -0.6249999999999998890, -2.846158715045951882E-17, 0.09375000000000005551 ) ) ;
#120 = APPLICATION_PROTOCOL_DEFINITION ( 'draft international standard', 'automotive_design', 1998, #113 ) ;
#121 = FACE_OUTER_BOUND ( 'NONE', #38, .T. ) ;
#122 = EDGE_CURVE ( 'NONE', #174, #109, #18, .T. ) ;
#123 = DIRECTION ( 'NONE',  ( -1.000000000000000000, 0.000000000000000000, 0.000000000000000000 ) ) ;
#124 = EDGE_CURVE ( 'NONE', #61, #202, #279, .T. ) ;
#125 = DIRECTION ( 'NONE',  ( -1.000000000000000000, 0.000000000000000000, 0.000000000000000000 ) ) ;
#126 = DIMENSIONAL_EXPONENTS ( 1.000000000000000000, 0.000000000000000000, 0.000000000000000000, 0.000000000000000000, 0.000000000000000000, 0.000000000000000000, 0.000000000000000000 ) ;
#127 = ORIENTED_EDGE ( 'NONE', *, *, #255, .F. ) ;
#128 = CARTESIAN_POINT ( 'NONE',  ( 0.6250000000000000000, 4.807883779625005971E-17, -0.1562500000000000000 ) ) ;
#129 = ORIENTED_EDGE ( 'NONE', *, *, #124, .F. ) ;
#130 =( NAMED_UNIT ( * ) SI_UNIT ( $, .STERADIAN. ) SOLID_ANGLE_UNIT ( ) );
#131 = ADVANCED_FACE ( 'NONE', ( #4 ), #240, .F. ) ;
#132 = VERTEX_POINT ( 'NONE', #167 ) ;
#133 = DIRECTION ( 'NONE',  ( -1.000000000000000000, 0.000000000000000000, 0.000000000000000000 ) ) ;
#134 = PRODUCT_DEFINITION_SHAPE ( 'NONE', 'NONE',  #259 ) ;
#135 = AXIS2_PLACEMENT_3D ( 'NONE', #58, #178, #85 ) ;
#136 = CYLINDRICAL_SURFACE ( 'NONE', #42, 0.5624999999999998890 ) ;
#137 = AXIS2_PLACEMENT_3D ( 'NONE', #242, #267, #264 ) ;
#138 = ORIENTED_EDGE ( 'NONE', *, *, #122, .F. ) ;
#139 = DIRECTION ( 'NONE',  ( -1.000000000000000000, 0.000000000000000000, 0.000000000000000000 ) ) ;
#140 = AXIS2_PLACEMENT_3D ( 'NONE', #287, #28, #125 ) ;
#141 = DIRECTION ( 'NONE',  ( -1.000000000000000000, 0.000000000000000000, 0.000000000000000000 ) ) ;
#142 = CARTESIAN_POINT ( 'NONE',  ( 0.000000000000000000, -2.846158715045951882E-17, -0.1562500000000000000 ) ) ;
#143 = DIRECTION ( 'NONE',  ( 0.000000000000000000, 0.000000000000000000, 1.000000000000000000 ) ) ;
#144 = CARTESIAN_POINT ( 'NONE',  ( 0.000000000000000000, -2.846158715045951882E-17, 0.09375000000000009714 ) ) ;
#145 = AXIS2_PLACEMENT_3D ( 'NONE', #144, #166, #213 ) ;
#146 = CYLINDRICAL_SURFACE ( 'NONE', #118, 0.5004999999999999449 ) ;
#147 = SURFACE_SIDE_STYLE ('',( #33 ) ) ;
#148 = ORIENTED_EDGE ( 'NONE', *, *, #301, .F. ) ;
#149 = DIRECTION ( 'NONE',  ( -0.000000000000000000, -0.000000000000000000, -1.000000000000000000 ) ) ;
#150 = ORIENTED_EDGE ( 'NONE', *, *, #206, .F. ) ;
#151 = CYLINDRICAL_SURFACE ( 'NONE', #208, 0.5624999999999998890 ) ;
#152 = ORIENTED_EDGE ( 'NONE', *, *, #156, .F. ) ;
#153 = CARTESIAN_POINT ( 'NONE',  ( -0.5004999999999999449, -2.846158715045951882E-17, -0.1562500000000000000 ) ) ;
#154 = ORIENTED_EDGE ( 'NONE', *, *, #297, .F. ) ;
#155 = PRODUCT ( 'WCP-1004 Rev1', 'WCP-1004 Rev1', '', ( #47 ) ) ;
#156 = EDGE_CURVE ( 'NONE', #179, #292, #265, .T. ) ;
#157 = ORIENTED_EDGE ( 'NONE', *, *, #284, .T. ) ;
#158 = PRESENTATION_LAYER_ASSIGNMENT (  '', '', ( #291 ) ) ;
#159 = DIRECTION ( 'NONE',  ( -0.000000000000000000, -0.000000000000000000, -1.000000000000000000 ) ) ;
#160 = CARTESIAN_POINT ( 'NONE',  ( 0.000000000000000000, 0.5624999999999998890, -0.1562500000000000000 ) ) ;
#161 = UNCERTAINTY_MEASURE_WITH_UNIT (LENGTH_MEASURE( 1.000000000000000082E-05 ), #50, 'distance_accuracy_value', 'NONE');
#162 =( NAMED_UNIT ( * ) SI_UNIT ( $, .STERADIAN. ) SOLID_ANGLE_UNIT ( ) );
#164 = AXIS2_PLACEMENT_3D ( 'NONE', #171, #300, #112 ) ;
#163 = DIRECTION ( 'NONE',  ( -0.000000000000000000, -0.000000000000000000, -1.000000000000000000 ) ) ;
#165 = CARTESIAN_POINT ( 'NONE',  ( -0.5624999999999998890, -2.846158715045951882E-17, 0.09375000000000009714 ) ) ;
#166 = DIRECTION ( 'NONE',  ( -0.000000000000000000, -0.000000000000000000, -1.000000000000000000 ) ) ;
#167 = CARTESIAN_POINT ( 'NONE',  ( -0.6250000000000000000, -2.846158715045951882E-17, 0.1562500000000000000 ) ) ;
#168 = VECTOR ( 'NONE', #54, 39.37007874015748143 ) ;
#169 = VERTEX_POINT ( 'NONE', #119 ) ;
#170 = EDGE_CURVE ( 'NONE', #221, #190, #184, .T. ) ;
#171 = CARTESIAN_POINT ( 'NONE',  ( 0.000000000000000000, -2.846158715045951882E-17, 0.1562500000000000000 ) ) ;
#172 = CARTESIAN_POINT ( 'NONE',  ( 0.000000000000000000, 0.6249999999999998890, 0.09375000000000009714 ) ) ;
#173 = ADVANCED_FACE ( 'NONE', ( #30, #121 ), #192, .T. ) ;
#174 = VERTEX_POINT ( 'NONE', #3 ) ;
#175 = CARTESIAN_POINT ( 'NONE',  ( 0.000000000000000000, -2.846158715045951882E-17, 0.09375000000000009714 ) ) ;
#176 = ORIENTED_EDGE ( 'NONE', *, *, #91, .T. ) ;
#177 = EDGE_CURVE ( 'NONE', #132, #169, #95, .T. ) ;
#178 = DIRECTION ( 'NONE',  ( -0.000000000000000000, -0.000000000000000000, -1.000000000000000000 ) ) ;
#179 = VERTEX_POINT ( 'NONE', #286 ) ;
#180 = FACE_BOUND ( 'NONE', #62, .T. ) ;
#181 = DIRECTION ( 'NONE',  ( -0.000000000000000000, 0.000000000000000000, -1.000000000000000000 ) ) ;
#182 = ADVANCED_FACE ( 'NONE', ( #97 ), #146, .F. ) ;
#183 =( GEOMETRIC_REPRESENTATION_CONTEXT ( 3 ) GLOBAL_UNCERTAINTY_ASSIGNED_CONTEXT ( ( #215 ) ) GLOBAL_UNIT_ASSIGNED_CONTEXT ( ( #220, #70, #130 ) ) REPRESENTATION_CONTEXT ( 'NONE', 'WORKASPACE' ) );
#184 = CIRCLE ( 'NONE', #145, 0.5624999999999998890 ) ;
#185 = EDGE_LOOP ( 'NONE', ( #204, #44, #274, #57 ) ) ;
#187 = CLOSED_SHELL ( 'NONE', ( #10, #48, #131, #37, #182, #173, #68, #243, #293 ) ) ;
#186 = CARTESIAN_POINT ( 'NONE',  ( -0.6250000000000000000, -2.846158715045951882E-17, -0.1562500000000000000 ) ) ;
#188 = PRESENTATION_STYLE_ASSIGNMENT (( #263 ) ) ;
#189 = DIRECTION ( 'NONE',  ( -1.000000000000000000, 0.000000000000000000, 0.000000000000000000 ) ) ;
#190 = VERTEX_POINT ( 'NONE', #165 ) ;
#191 = COLOUR_RGB ( '',0.6196078431372549211, 0.4078431372549019551, 0.2000000000000000111 ) ;
#192 = PLANE ( 'NONE',  #137 ) ;
#193 = CIRCLE ( 'NONE', #235, 0.5004999999999999449 ) ;
#194 =( LENGTH_UNIT ( ) NAMED_UNIT ( * ) SI_UNIT ( $, .METRE. ) );
#195 = ORIENTED_EDGE ( 'NONE', *, *, #281, .F. ) ;
#196 = LENGTH_MEASURE_WITH_UNIT ( LENGTH_MEASURE( 0.02539999999999999897 ), #194 );
#197 = EDGE_LOOP ( 'NONE', ( #152, #212, #59, #84 ) ) ;
#198 = CARTESIAN_POINT ( 'NONE',  ( 0.000000000000000000, -2.846158715045951882E-17, 0.09375000000000005551 ) ) ;
#199 = LINE ( 'NONE', #228, #117 ) ;
#200 = DIRECTION ( 'NONE',  ( -1.000000000000000000, 0.000000000000000000, 0.000000000000000000 ) ) ;
#201 = MANIFOLD_SOLID_BREP ( 'Revolve1', #187 ) ;
#202 = VERTEX_POINT ( 'NONE', #229 ) ;
#203 = DIRECTION ( 'NONE',  ( -1.000000000000000000, 0.000000000000000000, 0.000000000000000000 ) ) ;
#204 = ORIENTED_EDGE ( 'NONE', *, *, #255, .T. ) ;
#205 = AXIS2_PLACEMENT_3D ( 'NONE', #172, #231, #247 ) ;
#206 = EDGE_CURVE ( 'NONE', #217, #169, #108, .T. ) ;
#207 =( LENGTH_UNIT ( ) NAMED_UNIT ( * ) SI_UNIT ( $, .METRE. ) );
#208 = AXIS2_PLACEMENT_3D ( 'NONE', #65, #107, #296 ) ;
#209 = AXIS2_PLACEMENT_3D ( 'NONE', #49, #103, #75 ) ;
#210 = FILL_AREA_STYLE_COLOUR ( '', #191 ) ;
#211 =( NAMED_UNIT ( * ) PLANE_ANGLE_UNIT ( ) SI_UNIT ( $, .RADIAN. ) );
#212 = ORIENTED_EDGE ( 'NONE', *, *, #26, .T. ) ;
#213 = DIRECTION ( 'NONE',  ( -1.000000000000000000, 0.000000000000000000, 0.000000000000000000 ) ) ;
#214 = CARTESIAN_POINT ( 'NONE',  ( 0.000000000000000000, -2.846158715045951882E-17, -0.1562500000000000000 ) ) ;
#215 = UNCERTAINTY_MEASURE_WITH_UNIT (LENGTH_MEASURE( 1.000000000000000082E-05 ), #220, 'distance_accuracy_value', 'NONE');
#216 = DIRECTION ( 'NONE',  ( -0.000000000000000000, -0.000000000000000000, -1.000000000000000000 ) ) ;
#217 = VERTEX_POINT ( 'NONE', #89 ) ;
#218 = FILL_AREA_STYLE ('',( #261 ) ) ;
#219 = AXIS2_PLACEMENT_3D ( 'NONE', #249, #39, #16 ) ;
#220 =( CONVERSION_BASED_UNIT ( 'INCH', #290 ) LENGTH_UNIT ( ) NAMED_UNIT ( #126 ) );
#221 = VERTEX_POINT ( 'NONE', #226 ) ;
#222 = DIRECTION ( 'NONE',  ( -1.000000000000000000, 0.000000000000000000, 0.000000000000000000 ) ) ;
#223 = ORIENTED_EDGE ( 'NONE', *, *, #281, .T. ) ;
#224 = CARTESIAN_POINT ( 'NONE',  ( 0.6250000000000000000, 4.807883779625005971E-17, 0.1562500000000000000 ) ) ;
#225 = DIRECTION ( 'NONE',  ( -0.000000000000000000, -0.000000000000000000, -1.000000000000000000 ) ) ;
#226 = CARTESIAN_POINT ( 'NONE',  ( 0.5624999999999998890, 4.042479530157909446E-17, 0.09375000000000009714 ) ) ;
#227 = AXIS2_PLACEMENT_3D ( 'NONE', #6, #238, #55 ) ;
#228 = CARTESIAN_POINT ( 'NONE',  ( 0.5004999999999999449, 3.283198514686549673E-17, -0.1562500000000000000 ) ) ;
#229 = CARTESIAN_POINT ( 'NONE',  ( 0.5624999999999998890, 4.042479530157909446E-17, -0.1562499999999999722 ) ) ;
#230 = ORIENTED_EDGE ( 'NONE', *, *, #268, .F. ) ;
#231 = DIRECTION ( 'NONE',  ( -0.000000000000000000, 0.000000000000000000, -1.000000000000000000 ) ) ;
#232 = FACE_BOUND ( 'NONE', #276, .T. ) ;
#233 = VECTOR ( 'NONE', #275, 39.37007874015748143 ) ;
#234 = EDGE_CURVE ( 'NONE', #260, #217, #13, .T. ) ;
#235 = AXIS2_PLACEMENT_3D ( 'NONE', #79, #163, #189 ) ;
#236 = SURFACE_SIDE_STYLE ('',( #2 ) ) ;
#237 = CARTESIAN_POINT ( 'NONE',  ( -0.5004999999999999449, -2.846158715045951882E-17, -0.1562500000000000000 ) ) ;
#238 = DIRECTION ( 'NONE',  ( -0.000000000000000000, -0.000000000000000000, -1.000000000000000000 ) ) ;
#239 = LENGTH_MEASURE_WITH_UNIT ( LENGTH_MEASURE( 0.02539999999999999897 ), #207 );
#240 = CYLINDRICAL_SURFACE ( 'NONE', #102, 0.5004999999999999449 ) ;
#241 = PRODUCT_RELATED_PRODUCT_CATEGORY ( 'part', '', ( #155 ) ) ;
#242 = CARTESIAN_POINT ( 'NONE',  ( 0.000000000000000000, 0.5004999999999999449, 0.1562500000000000000 ) ) ;
#243 = ADVANCED_FACE ( 'NONE', ( #271, #180 ), #105, .T. ) ;
#244 = EDGE_LOOP ( 'NONE', ( #272, #99 ) ) ;
#245 = DIRECTION ( 'NONE',  ( -0.000000000000000000, -0.000000000000000000, -1.000000000000000000 ) ) ;
#246 = FACE_OUTER_BOUND ( 'NONE', #78, .T. ) ;
#247 = DIRECTION ( 'NONE',  ( -1.000000000000000000, 0.000000000000000000, 0.000000000000000000 ) ) ;
#248 = EDGE_LOOP ( 'NONE', ( #83, #12 ) ) ;
#249 = CARTESIAN_POINT ( 'NONE',  ( 0.000000000000000000, -2.846158715045951882E-17, 0.1562500000000000000 ) ) ;
#250 = EDGE_LOOP ( 'NONE', ( #20, #106, #270, #150 ) ) ;
#251 = AXIS2_PLACEMENT_3D ( 'NONE', #21, #149, #222 ) ;
#252 = COLOUR_RGB ( '',0.6196078431372549211, 0.4078431372549019551, 0.2000000000000000111 ) ;
#253 = EDGE_LOOP ( 'NONE', ( #294, #88 ) ) ;
#254 = CARTESIAN_POINT ( 'NONE',  ( 0.000000000000000000, -2.846158715045951882E-17, -0.1562500000000000000 ) ) ;
#255 = EDGE_CURVE ( 'NONE', #132, #260, #256, .T. ) ;
#256 = CIRCLE ( 'NONE', #135, 0.6250000000000000000 ) ;
#257 = FACE_OUTER_BOUND ( 'NONE', #250, .T. ) ;
#258 = PRESENTATION_STYLE_ASSIGNMENT (( #27 ) ) ;
#259 = PRODUCT_DEFINITION ( 'UNKNOWN', '', #24, #288 ) ;
#260 = VERTEX_POINT ( 'NONE', #224 ) ;
#261 = FILL_AREA_STYLE_COLOUR ( '', #252 ) ;
#262 = EDGE_CURVE ( 'NONE', #169, #217, #9, .T. ) ;
#263 = SURFACE_STYLE_USAGE ( .BOTH. , #147 ) ;
#265 = CIRCLE ( 'NONE', #140, 0.5004999999999999449 ) ;
#264 = DIRECTION ( 'NONE',  ( 1.000000000000000000, 0.000000000000000000, -0.000000000000000000 ) ) ;
#266 = DIMENSIONAL_EXPONENTS ( 1.000000000000000000, 0.000000000000000000, 0.000000000000000000, 0.000000000000000000, 0.000000000000000000, 0.000000000000000000, 0.000000000000000000 ) ;
#267 = DIRECTION ( 'NONE',  ( 0.000000000000000000, 0.000000000000000000, 1.000000000000000000 ) ) ;
#268 = EDGE_CURVE ( 'NONE', #202, #61, #15, .T. ) ;
#269 = ORIENTED_EDGE ( 'NONE', *, *, #301, .T. ) ;
#270 = ORIENTED_EDGE ( 'NONE', *, *, #177, .T. ) ;
#271 = FACE_OUTER_BOUND ( 'NONE', #253, .T. ) ;
#272 = ORIENTED_EDGE ( 'NONE', *, *, #124, .T. ) ;
#273 = DIRECTION ( 'NONE',  ( -0.000000000000000000, -0.000000000000000000, -1.000000000000000000 ) ) ;
#274 = ORIENTED_EDGE ( 'NONE', *, *, #262, .F. ) ;
#275 = DIRECTION ( 'NONE',  ( -0.000000000000000000, -0.000000000000000000, -1.000000000000000000 ) ) ;
#276 = EDGE_LOOP ( 'NONE', ( #8, #138 ) ) ;
#277 = CARTESIAN_POINT ( 'NONE',  ( -0.5004999999999999449, -2.846158715045951882E-17, 0.1562500000000000000 ) ) ;
#278 =( GEOMETRIC_REPRESENTATION_CONTEXT ( 3 ) GLOBAL_UNCERTAINTY_ASSIGNED_CONTEXT ( ( #32 ) ) GLOBAL_UNIT_ASSIGNED_CONTEXT ( ( #82, #211, #73 ) ) REPRESENTATION_CONTEXT ( 'NONE', 'WORKASPACE' ) );
#279 = CIRCLE ( 'NONE', #209, 0.5624999999999998890 ) ;
#280 = CARTESIAN_POINT ( 'NONE',  ( 0.5624999999999998890, 4.042479530157909446E-17, -0.1562500000000000000 ) ) ;
#281 = EDGE_CURVE ( 'NONE', #190, #221, #1, .T. ) ;
#282 = CIRCLE ( 'NONE', #164, 0.6250000000000000000 ) ;
#283 = CARTESIAN_POINT ( 'NONE',  ( 0.000000000000000000, -2.846158715045951882E-17, 0.09375000000000005551 ) ) ;
#284 = EDGE_CURVE ( 'NONE', #292, #109, #60, .T. ) ;
#285 = DIRECTION ( 'NONE',  ( 1.000000000000000000, 0.000000000000000000, 0.000000000000000000 ) ) ;
#286 = CARTESIAN_POINT ( 'NONE',  ( 0.5004999999999999449, 3.283198514686549673E-17, 0.1562500000000000000 ) ) ;
#287 = CARTESIAN_POINT ( 'NONE',  ( 0.000000000000000000, -2.846158715045951882E-17, 0.1562500000000000000 ) ) ;
#288 = PRODUCT_DEFINITION_CONTEXT ( 'detailed design', #113, 'design' ) ;
#289 = CYLINDRICAL_SURFACE ( 'NONE', #43, 0.6250000000000000000 ) ;
#291 = STYLED_ITEM ( 'NONE', ( #188 ), #201 ) ;
#290 = LENGTH_MEASURE_WITH_UNIT ( LENGTH_MEASURE( 0.02539999999999999897 ), #74 );
#292 = VERTEX_POINT ( 'NONE', #277 ) ;
#293 = ADVANCED_FACE ( 'NONE', ( #45 ), #151, .T. ) ;
#294 = ORIENTED_EDGE ( 'NONE', *, *, #262, .T. ) ;
#295 = MECHANICAL_DESIGN_GEOMETRIC_PRESENTATION_REPRESENTATION (  '', ( #76 ), #303 ) ;
#296 = DIRECTION ( 'NONE',  ( -1.000000000000000000, 0.000000000000000000, 0.000000000000000000 ) ) ;
#297 = EDGE_CURVE ( 'NONE', #292, #179, #114, .T. ) ;
#298 = EDGE_LOOP ( 'NONE', ( #104, #64, #269, #230 ) ) ;
#299 = CARTESIAN_POINT ( 'NONE',  ( -0.5624999999999998890, -2.846158715045951882E-17, -0.1562500000000000000 ) ) ;
#300 = DIRECTION ( 'NONE',  ( -0.000000000000000000, -0.000000000000000000, -1.000000000000000000 ) ) ;
#301 = EDGE_CURVE ( 'NONE', #190, #61, #110, .T. ) ;
#302 = FACE_OUTER_BOUND ( 'NONE', #185, .T. ) ;
#303 =( GEOMETRIC_REPRESENTATION_CONTEXT ( 3 ) GLOBAL_UNCERTAINTY_ASSIGNED_CONTEXT ( ( #161 ) ) GLOBAL_UNIT_ASSIGNED_CONTEXT ( ( #50, #5, #162 ) ) REPRESENTATION_CONTEXT ( 'NONE', 'WORKASPACE' ) );
ENDSEC;
END-ISO-10303-21;
