ISO-10303-21;
HEADER;
FILE_DESCRIPTION (( 'STEP AP214' ),
    '1' );
FILE_NAME ('WCP-1000 Rev1.step',
    '2023-12-22T21:48:30',
    ( '' ),
    ( '' ),
    'SwSTEP 2.0',
    'SolidWorks 2022',
    '' );
FILE_SCHEMA (( 'AUTOMOTIVE_DESIGN' ));
ENDSEC;

DATA;
#1 = CARTESIAN_POINT ( 'NONE',  ( 0.000000000000000000, -2.846158715045951882E-17, 0.09375000000000005551 ) ) ;
#2 = DIRECTION ( 'NONE',  ( 0.000000000000000000, 0.000000000000000000, 1.000000000000000000 ) ) ;
#3 = CARTESIAN_POINT ( 'NONE',  ( 0.000000000000000000, -2.846158715045951882E-17, 0.1562500000000000000 ) ) ;
#4 = EDGE_CURVE ( 'NONE', #153, #12, #6, .T. ) ;
#5 = DIRECTION ( 'NONE',  ( -0.000000000000000000, 0.000000000000000000, -1.000000000000000000 ) ) ;
#6 = CIRCLE ( 'NONE', #231, 0.4374999999999998890 ) ;
#7 = MECHANICAL_DESIGN_GEOMETRIC_PRESENTATION_REPRESENTATION (  '', ( #90 ), #196 ) ;
#8 = CARTESIAN_POINT ( 'NONE',  ( -0.3754999999999999449, -2.846158715045951882E-17, -0.1562500000000000000 ) ) ;
#9 = CARTESIAN_POINT ( 'NONE',  ( 0.4999999999999998335, 3.277075280690812921E-17, 0.1562500000000000000 ) ) ;
#10 = EDGE_CURVE ( 'NONE', #226, #117, #300, .T. ) ;
#11 = CARTESIAN_POINT ( 'NONE',  ( 0.000000000000000000, 0.000000000000000000, 0.000000000000000000 ) ) ;
#12 = VERTEX_POINT ( 'NONE', #190 ) ;
#13 = EDGE_LOOP ( 'NONE', ( #297, #296 ) ) ;
#14 = ORIENTED_EDGE ( 'NONE', *, *, #102, .T. ) ;
#15 = ORIENTED_EDGE ( 'NONE', *, *, #71, .F. ) ;
#16 = CARTESIAN_POINT ( 'NONE',  ( 0.000000000000000000, -2.846158715045951882E-17, -0.1562500000000000000 ) ) ;
#17 = ADVANCED_FACE ( 'NONE', ( #43 ), #133, .T. ) ;
#18 = PRESENTATION_LAYER_ASSIGNMENT (  '', '', ( #61 ) ) ;
#19 = CLOSED_SHELL ( 'NONE', ( #251, #273, #236, #120, #193, #22, #97, #298, #17 ) ) ;
#20 = VECTOR ( 'NONE', #108, 39.37007874015748143 ) ;
#21 = DIRECTION ( 'NONE',  ( -1.000000000000000000, 0.000000000000000000, 0.000000000000000000 ) ) ;
#22 = ADVANCED_FACE ( 'NONE', ( #256, #171 ), #29, .T. ) ;
#23 = DIRECTION ( 'NONE',  ( -0.000000000000000000, -0.000000000000000000, -1.000000000000000000 ) ) ;
#24 = DIRECTION ( 'NONE',  ( -0.000000000000000000, 0.000000000000000000, -1.000000000000000000 ) ) ;
#25 = DIRECTION ( 'NONE',  ( -0.000000000000000000, -0.000000000000000000, -1.000000000000000000 ) ) ;
#26 = DIRECTION ( 'NONE',  ( -0.000000000000000000, -0.000000000000000000, -1.000000000000000000 ) ) ;
#27 = AXIS2_PLACEMENT_3D ( 'NONE', #235, #143, #123 ) ;
#28 =( NAMED_UNIT ( * ) SI_UNIT ( $, .STERADIAN. ) SOLID_ANGLE_UNIT ( ) );
#29 = PLANE ( 'NONE',  #206 ) ;
#30 = PRODUCT_CONTEXT ( 'NONE', #228, 'mechanical' ) ;
#31 = APPLICATION_CONTEXT ( 'automotive_design' ) ;
#32 = SURFACE_STYLE_USAGE ( .BOTH. , #144 ) ;
#33 = DIRECTION ( 'NONE',  ( -1.000000000000000000, 0.000000000000000000, 0.000000000000000000 ) ) ;
#34 = EDGE_CURVE ( 'NONE', #227, #153, #240, .T. ) ;
#35 = LINE ( 'NONE', #241, #208 ) ;
#36 = CIRCLE ( 'NONE', #27, 0.4999999999999998335 ) ;
#37 = LENGTH_MEASURE_WITH_UNIT ( LENGTH_MEASURE( 0.02539999999999999897 ), #262 );
#38 = AXIS2_PLACEMENT_3D ( 'NONE', #218, #290, #33 ) ;
#39 = FACE_OUTER_BOUND ( 'NONE', #111, .T. ) ;
#40 = EDGE_CURVE ( 'NONE', #99, #12, #80, .T. ) ;
#41 = AXIS2_PLACEMENT_3D ( 'NONE', #16, #301, #167 ) ;
#42 = AXIS2_PLACEMENT_3D ( 'NONE', #122, #180, #302 ) ;
#43 = FACE_OUTER_BOUND ( 'NONE', #207, .T. ) ;
#44 = VERTEX_POINT ( 'NONE', #85 ) ;
#45 = ORIENTED_EDGE ( 'NONE', *, *, #10, .F. ) ;
#46 = ORIENTED_EDGE ( 'NONE', *, *, #255, .F. ) ;
#47 = ORIENTED_EDGE ( 'NONE', *, *, #185, .T. ) ;
#48 = FACE_OUTER_BOUND ( 'NONE', #65, .T. ) ;
#49 = DIRECTION ( 'NONE',  ( -1.000000000000000000, 0.000000000000000000, 0.000000000000000000 ) ) ;
#50 = CIRCLE ( 'NONE', #154, 0.3754999999999999449 ) ;
#51 = FACE_OUTER_BOUND ( 'NONE', #229, .T. ) ;
#52 = PLANE ( 'NONE',  #244 ) ;
#53 = CARTESIAN_POINT ( 'NONE',  ( 0.000000000000000000, 0.4374999999999998890, -0.1562500000000000000 ) ) ;
#54 =( NAMED_UNIT ( * ) PLANE_ANGLE_UNIT ( ) SI_UNIT ( $, .RADIAN. ) );
#55 = CARTESIAN_POINT ( 'NONE',  ( 0.3754999999999999449, 1.752390015752358781E-17, -0.1562500000000000000 ) ) ;
#56 = CIRCLE ( 'NONE', #219, 0.3754999999999999449 ) ;
#57 = DIRECTION ( 'NONE',  ( -1.000000000000000000, 0.000000000000000000, 0.000000000000000000 ) ) ;
#58 =( CONVERSION_BASED_UNIT ( 'INCH', #37 ) LENGTH_UNIT ( ) NAMED_UNIT ( #112 ) );
#59 = DIRECTION ( 'NONE',  ( -0.000000000000000000, -0.000000000000000000, -1.000000000000000000 ) ) ;
#60 = CARTESIAN_POINT ( 'NONE',  ( 0.000000000000000000, 0.3754999999999999449, 0.1562500000000000000 ) ) ;
#61 = STYLED_ITEM ( 'NONE', ( #264 ), #266 ) ;
#62 = EDGE_LOOP ( 'NONE', ( #247, #209 ) ) ;
#63 = CIRCLE ( 'NONE', #294, 0.3754999999999999449 ) ;
#64 = ORIENTED_EDGE ( 'NONE', *, *, #285, .F. ) ;
#65 = EDGE_LOOP ( 'NONE', ( #271, #47, #66, #114 ) ) ;
#66 = ORIENTED_EDGE ( 'NONE', *, *, #212, .F. ) ;
#67 =( GEOMETRIC_REPRESENTATION_CONTEXT ( 3 ) GLOBAL_UNCERTAINTY_ASSIGNED_CONTEXT ( ( #195 ) ) GLOBAL_UNIT_ASSIGNED_CONTEXT ( ( #138, #233, #211 ) ) REPRESENTATION_CONTEXT ( 'NONE', 'WORKASPACE' ) );
#68 = ORIENTED_EDGE ( 'NONE', *, *, #40, .F. ) ;
#69 = DIRECTION ( 'NONE',  ( -1.000000000000000000, 0.000000000000000000, 0.000000000000000000 ) ) ;
#70 = CYLINDRICAL_SURFACE ( 'NONE', #158, 0.3754999999999999449 ) ;
#71 = EDGE_CURVE ( 'NONE', #274, #75, #50, .T. ) ;
#72 =( GEOMETRIC_REPRESENTATION_CONTEXT ( 3 ) GLOBAL_UNCERTAINTY_ASSIGNED_CONTEXT ( ( #258 ) ) GLOBAL_UNIT_ASSIGNED_CONTEXT ( ( #58, #260, #28 ) ) REPRESENTATION_CONTEXT ( 'NONE', 'WORKASPACE' ) );
#73 =( NAMED_UNIT ( * ) SI_UNIT ( $, .STERADIAN. ) SOLID_ANGLE_UNIT ( ) );
#74 = CYLINDRICAL_SURFACE ( 'NONE', #41, 0.4999999999999998335 ) ;
#75 = VERTEX_POINT ( 'NONE', #192 ) ;
#76 = LENGTH_MEASURE_WITH_UNIT ( LENGTH_MEASURE( 0.02539999999999999897 ), #169 );
#77 = LENGTH_MEASURE_WITH_UNIT ( LENGTH_MEASURE( 0.02539999999999999897 ), #176 );
#78 = CARTESIAN_POINT ( 'NONE',  ( -0.3754999999999999449, -2.846158715045951882E-17, -0.1562500000000000000 ) ) ;
#79 = FILL_AREA_STYLE ('',( #200 ) ) ;
#80 = LINE ( 'NONE', #172, #293 ) ;
#81 = CARTESIAN_POINT ( 'NONE',  ( 0.4374999999999998890, 2.511671031223717937E-17, -0.1562500000000000000 ) ) ;
#82 = EDGE_CURVE ( 'NONE', #137, #182, #165, .T. ) ;
#83 = DIRECTION ( 'NONE',  ( 1.000000000000000000, 0.000000000000000000, 0.000000000000000000 ) ) ;
#84 = CARTESIAN_POINT ( 'NONE',  ( 0.3754999999999999449, 1.752390015752358781E-17, -0.1562500000000000000 ) ) ;
#85 = CARTESIAN_POINT ( 'NONE',  ( -0.4999999999999998335, -2.846158715045951882E-17, 0.1562500000000000000 ) ) ;
#86 = EDGE_LOOP ( 'NONE', ( #142, #168 ) ) ;
#87 = PRODUCT_DEFINITION_CONTEXT ( 'detailed design', #31, 'design' ) ;
#88 = EDGE_LOOP ( 'NONE', ( #272, #93 ) ) ;
#89 = AXIS2_PLACEMENT_3D ( 'NONE', #215, #95, #21 ) ;
#90 = STYLED_ITEM ( 'NONE', ( #197 ), #225 ) ;
#91 = ORIENTED_EDGE ( 'NONE', *, *, #255, .T. ) ;
#92 = ORIENTED_EDGE ( 'NONE', *, *, #299, .T. ) ;
#93 = ORIENTED_EDGE ( 'NONE', *, *, #4, .T. ) ;
#94 = AXIS2_PLACEMENT_3D ( 'NONE', #11, #222, #83 ) ;
#95 = DIRECTION ( 'NONE',  ( -0.000000000000000000, -0.000000000000000000, -1.000000000000000000 ) ) ;
#96 = CARTESIAN_POINT ( 'NONE',  ( 0.4999999999999998335, 3.277075280690812921E-17, 0.09375000000000009714 ) ) ;
#97 = ADVANCED_FACE ( 'NONE', ( #39 ), #131, .T. ) ;
#98 = PRODUCT_DEFINITION_FORMATION_WITH_SPECIFIED_SOURCE ( 'ANY', '', #121, .NOT_KNOWN. ) ;
#99 = VERTEX_POINT ( 'NONE', #286 ) ;
#100 = DIRECTION ( 'NONE',  ( -0.000000000000000000, -0.000000000000000000, -1.000000000000000000 ) ) ;
#101 = CARTESIAN_POINT ( 'NONE',  ( 0.000000000000000000, -2.846158715045951882E-17, 0.1562500000000000000 ) ) ;
#102 = EDGE_CURVE ( 'NONE', #44, #117, #223, .T. ) ;
#103 = DIRECTION ( 'NONE',  ( -0.000000000000000000, -0.000000000000000000, -1.000000000000000000 ) ) ;
#104 = DIRECTION ( 'NONE',  ( -0.000000000000000000, -0.000000000000000000, -1.000000000000000000 ) ) ;
#105 = CIRCLE ( 'NONE', #291, 0.4374999999999998890 ) ;
#106 = SURFACE_STYLE_FILL_AREA ( #79 ) ;
#107 = VECTOR ( 'NONE', #59, 39.37007874015748143 ) ;
#108 = DIRECTION ( 'NONE',  ( -0.000000000000000000, -0.000000000000000000, -1.000000000000000000 ) ) ;
#109 = CARTESIAN_POINT ( 'NONE',  ( 0.000000000000000000, -2.846158715045951882E-17, 0.09375000000000009714 ) ) ;
#110 = COLOUR_RGB ( '',0.6196078431372549211, 0.4078431372549019551, 0.2000000000000000111 ) ;
#111 = EDGE_LOOP ( 'NONE', ( #157, #91, #14, #45 ) ) ;
#112 = DIMENSIONAL_EXPONENTS ( 1.000000000000000000, 0.000000000000000000, 0.000000000000000000, 0.000000000000000000, 0.000000000000000000, 0.000000000000000000, 0.000000000000000000 ) ;
#113 = FILL_AREA_STYLE_COLOUR ( '', #130 ) ;
#114 = ORIENTED_EDGE ( 'NONE', *, *, #102, .F. ) ;
#115 = CIRCLE ( 'NONE', #282, 0.4999999999999998335 ) ;
#116 = EDGE_LOOP ( 'NONE', ( #214, #245, #184, #224 ) ) ;
#117 = VERTEX_POINT ( 'NONE', #127 ) ;
#118 = DIRECTION ( 'NONE',  ( -0.000000000000000000, -0.000000000000000000, -1.000000000000000000 ) ) ;
#119 = CARTESIAN_POINT ( 'NONE',  ( -0.3754999999999999449, -2.846158715045951882E-17, 0.1562500000000000000 ) ) ;
#120 = ADVANCED_FACE ( 'NONE', ( #149, #150 ), #174, .T. ) ;
#121 = PRODUCT ( 'WCP-1000 Rev1', 'WCP-1000 Rev1', '', ( #30 ) ) ;
#122 = CARTESIAN_POINT ( 'NONE',  ( 0.000000000000000000, -2.846158715045951882E-17, 0.09375000000000009714 ) ) ;
#123 = DIRECTION ( 'NONE',  ( -1.000000000000000000, 0.000000000000000000, 0.000000000000000000 ) ) ;
#124 = CIRCLE ( 'NONE', #89, 0.4374999999999998890 ) ;
#125 = CYLINDRICAL_SURFACE ( 'NONE', #181, 0.3754999999999999449 ) ;
#126 = DIRECTION ( 'NONE',  ( -0.000000000000000000, -0.000000000000000000, -1.000000000000000000 ) ) ;
#127 = CARTESIAN_POINT ( 'NONE',  ( -0.4999999999999998335, -2.846158715045951882E-17, 0.09375000000000009714 ) ) ;
#128 = LINE ( 'NONE', #8, #20 ) ;
#129 = AXIS2_PLACEMENT_3D ( 'NONE', #134, #238, #57 ) ;
#130 = COLOUR_RGB ( '',0.6196078431372549211, 0.4078431372549019551, 0.2000000000000000111 ) ;
#131 = CYLINDRICAL_SURFACE ( 'NONE', #38, 0.4999999999999998335 ) ;
#132 = EDGE_CURVE ( 'NONE', #75, #274, #63, .T. ) ;
#133 = CYLINDRICAL_SURFACE ( 'NONE', #129, 0.4374999999999998890 ) ;
#134 = CARTESIAN_POINT ( 'NONE',  ( 0.000000000000000000, -2.846158715045951882E-17, -0.1562500000000000000 ) ) ;
#135 = DIMENSIONAL_EXPONENTS ( 1.000000000000000000, 0.000000000000000000, 0.000000000000000000, 0.000000000000000000, 0.000000000000000000, 0.000000000000000000, 0.000000000000000000 ) ;
#136 = ORIENTED_EDGE ( 'NONE', *, *, #4, .F. ) ;
#137 = VERTEX_POINT ( 'NONE', #78 ) ;
#138 =( CONVERSION_BASED_UNIT ( 'INCH', #76 ) LENGTH_UNIT ( ) NAMED_UNIT ( #249 ) );
#139 = PRODUCT_DEFINITION_SHAPE ( 'NONE', 'NONE',  #270 ) ;
#140 = VECTOR ( 'NONE', #237, 39.37007874015748143 ) ;
#141 = CARTESIAN_POINT ( 'NONE',  ( 0.000000000000000000, -2.846158715045951882E-17, -0.1562500000000000000 ) ) ;
#142 = ORIENTED_EDGE ( 'NONE', *, *, #71, .T. ) ;
#143 = DIRECTION ( 'NONE',  ( -0.000000000000000000, -0.000000000000000000, -1.000000000000000000 ) ) ;
#144 = SURFACE_SIDE_STYLE ('',( #160 ) ) ;
#145 = CARTESIAN_POINT ( 'NONE',  ( 0.000000000000000000, -2.846158715045951882E-17, 0.1562500000000000000 ) ) ;
#146 = CARTESIAN_POINT ( 'NONE',  ( 0.000000000000000000, -2.846158715045951882E-17, -0.1562500000000000000 ) ) ;
#147 = DIRECTION ( 'NONE',  ( 1.000000000000000000, 0.000000000000000000, -0.000000000000000000 ) ) ;
#148 = APPLICATION_PROTOCOL_DEFINITION ( 'draft international standard', 'automotive_design', 1998, #31 ) ;
#149 = FACE_OUTER_BOUND ( 'NONE', #88, .T. ) ;
#150 = FACE_BOUND ( 'NONE', #13, .T. ) ;
#151 = PRESENTATION_LAYER_ASSIGNMENT (  '', '', ( #90 ) ) ;
#152 = EDGE_CURVE ( 'NONE', #44, #156, #221, .T. ) ;
#153 = VERTEX_POINT ( 'NONE', #263 ) ;
#154 = AXIS2_PLACEMENT_3D ( 'NONE', #101, #126, #239 ) ;
#155 = UNCERTAINTY_MEASURE_WITH_UNIT (LENGTH_MEASURE( 1.000000000000000082E-05 ), #170, 'distance_accuracy_value', 'NONE');
#156 = VERTEX_POINT ( 'NONE', #9 ) ;
#157 = ORIENTED_EDGE ( 'NONE', *, *, #185, .F. ) ;
#158 = AXIS2_PLACEMENT_3D ( 'NONE', #163, #253, #49 ) ;
#159 = ORIENTED_EDGE ( 'NONE', *, *, #299, .F. ) ;
#160 = SURFACE_STYLE_FILL_AREA ( #205 ) ;
#161 = EDGE_LOOP ( 'NONE', ( #292, #15, #250, #246 ) ) ;
#162 = FACE_BOUND ( 'NONE', #234, .T. ) ;
#163 = CARTESIAN_POINT ( 'NONE',  ( 0.000000000000000000, -2.846158715045951882E-17, -0.1562500000000000000 ) ) ;
#164 = AXIS2_PLACEMENT_3D ( 'NONE', #252, #191, #69 ) ;
#165 = CIRCLE ( 'NONE', #232, 0.3754999999999999449 ) ;
#166 = DIRECTION ( 'NONE',  ( -1.000000000000000000, 0.000000000000000000, 0.000000000000000000 ) ) ;
#167 = DIRECTION ( 'NONE',  ( -1.000000000000000000, 0.000000000000000000, 0.000000000000000000 ) ) ;
#168 = ORIENTED_EDGE ( 'NONE', *, *, #132, .T. ) ;
#169 =( LENGTH_UNIT ( ) NAMED_UNIT ( * ) SI_UNIT ( $, .METRE. ) );
#170 =( CONVERSION_BASED_UNIT ( 'INCH', #77 ) LENGTH_UNIT ( ) NAMED_UNIT ( #135 ) );
#171 = FACE_OUTER_BOUND ( 'NONE', #276, .T. ) ;
#172 = CARTESIAN_POINT ( 'NONE',  ( -0.4374999999999998890, -2.846158715045951882E-17, -0.1562500000000000000 ) ) ;
#173 = SURFACE_SIDE_STYLE ('',( #106 ) ) ;
#174 = PLANE ( 'NONE',  #269 ) ;
#175 = APPLICATION_PROTOCOL_DEFINITION ( 'draft international standard', 'automotive_design', 1998, #228 ) ;
#176 =( LENGTH_UNIT ( ) NAMED_UNIT ( * ) SI_UNIT ( $, .METRE. ) );
#177 = DIRECTION ( 'NONE',  ( -0.000000000000000000, -0.000000000000000000, -1.000000000000000000 ) ) ;
#178 = ORIENTED_EDGE ( 'NONE', *, *, #152, .F. ) ;
#179 = EDGE_CURVE ( 'NONE', #75, #182, #287, .T. ) ;
#180 = DIRECTION ( 'NONE',  ( -0.000000000000000000, -0.000000000000000000, -1.000000000000000000 ) ) ;
#181 = AXIS2_PLACEMENT_3D ( 'NONE', #146, #177, #265 ) ;
#182 = VERTEX_POINT ( 'NONE', #55 ) ;
#183 = ORIENTED_EDGE ( 'NONE', *, *, #243, .F. ) ;
#184 = ORIENTED_EDGE ( 'NONE', *, *, #242, .T. ) ;
#185 = EDGE_CURVE ( 'NONE', #156, #226, #35, .T. ) ;
#186 = EDGE_CURVE ( 'NONE', #274, #137, #128, .T. ) ;
#187 = CARTESIAN_POINT ( 'NONE',  ( 0.4374999999999998890, 2.511671031223717937E-17, 0.09375000000000005551 ) ) ;
#188 = DIRECTION ( 'NONE',  ( -1.000000000000000000, 0.000000000000000000, 0.000000000000000000 ) ) ;
#189 = FACE_OUTER_BOUND ( 'NONE', #62, .T. ) ;
#190 = CARTESIAN_POINT ( 'NONE',  ( -0.4374999999999998890, -2.846158715045951882E-17, -0.1562500000000000000 ) ) ;
#191 = DIRECTION ( 'NONE',  ( -0.000000000000000000, -0.000000000000000000, -1.000000000000000000 ) ) ;
#192 = CARTESIAN_POINT ( 'NONE',  ( 0.3754999999999999449, 1.752390015752358781E-17, 0.1562500000000000000 ) ) ;
#193 = ADVANCED_FACE ( 'NONE', ( #201 ), #125, .F. ) ;
#194 = CARTESIAN_POINT ( 'NONE',  ( -0.4999999999999998335, -2.846158715045951882E-17, -0.1562500000000000000 ) ) ;
#195 = UNCERTAINTY_MEASURE_WITH_UNIT (LENGTH_MEASURE( 1.000000000000000082E-05 ), #138, 'distance_accuracy_value', 'NONE');
#196 =( GEOMETRIC_REPRESENTATION_CONTEXT ( 3 ) GLOBAL_UNCERTAINTY_ASSIGNED_CONTEXT ( ( #155 ) ) GLOBAL_UNIT_ASSIGNED_CONTEXT ( ( #170, #54, #73 ) ) REPRESENTATION_CONTEXT ( 'NONE', 'WORKASPACE' ) );
#197 = PRESENTATION_STYLE_ASSIGNMENT (( #32 ) ) ;
#198 = DIRECTION ( 'NONE',  ( -1.000000000000000000, 0.000000000000000000, 0.000000000000000000 ) ) ;
#199 = AXIS2_PLACEMENT_3D ( 'NONE', #145, #259, #198 ) ;
#200 = FILL_AREA_STYLE_COLOUR ( '', #110 ) ;
#201 = FACE_OUTER_BOUND ( 'NONE', #161, .T. ) ;
#202 = DIRECTION ( 'NONE',  ( -1.000000000000000000, 0.000000000000000000, 0.000000000000000000 ) ) ;
#203 = CIRCLE ( 'NONE', #303, 0.4374999999999998890 ) ;
#204 = CARTESIAN_POINT ( 'NONE',  ( 0.000000000000000000, -2.846158715045951882E-17, -0.1562500000000000000 ) ) ;
#205 = FILL_AREA_STYLE ('',( #113 ) ) ;
#206 = AXIS2_PLACEMENT_3D ( 'NONE', #60, #2, #147 ) ;
#207 = EDGE_LOOP ( 'NONE', ( #267, #92, #295, #136 ) ) ;
#208 = VECTOR ( 'NONE', #26, 39.37007874015748143 ) ;
#209 = ORIENTED_EDGE ( 'NONE', *, *, #10, .T. ) ;
#210 = ORIENTED_EDGE ( 'NONE', *, *, #34, .T. ) ;
#211 =( NAMED_UNIT ( * ) SI_UNIT ( $, .STERADIAN. ) SOLID_ANGLE_UNIT ( ) );
#212 = EDGE_CURVE ( 'NONE', #117, #226, #115, .T. ) ;
#213 = DIRECTION ( 'NONE',  ( -1.000000000000000000, 0.000000000000000000, 0.000000000000000000 ) ) ;
#214 = ORIENTED_EDGE ( 'NONE', *, *, #132, .F. ) ;
#215 = CARTESIAN_POINT ( 'NONE',  ( 0.000000000000000000, -2.846158715045951882E-17, -0.1562500000000000000 ) ) ;
#216 = DIRECTION ( 'NONE',  ( -0.000000000000000000, -0.000000000000000000, -1.000000000000000000 ) ) ;
#217 = DIRECTION ( 'NONE',  ( -1.000000000000000000, 0.000000000000000000, 0.000000000000000000 ) ) ;
#218 = CARTESIAN_POINT ( 'NONE',  ( 0.000000000000000000, -2.846158715045951882E-17, -0.1562500000000000000 ) ) ;
#219 = AXIS2_PLACEMENT_3D ( 'NONE', #141, #23, #166 ) ;
#220 = DIRECTION ( 'NONE',  ( -0.000000000000000000, -0.000000000000000000, -1.000000000000000000 ) ) ;
#221 = CIRCLE ( 'NONE', #199, 0.4999999999999998335 ) ;
#222 = DIRECTION ( 'NONE',  ( 0.000000000000000000, 0.000000000000000000, 1.000000000000000000 ) ) ;
#223 = LINE ( 'NONE', #194, #107 ) ;
#224 = ORIENTED_EDGE ( 'NONE', *, *, #186, .F. ) ;
#225 = MANIFOLD_SOLID_BREP ( 'Revolve1', #19 ) ;
#226 = VERTEX_POINT ( 'NONE', #96 ) ;
#227 = VERTEX_POINT ( 'NONE', #187 ) ;
#228 = APPLICATION_CONTEXT ( 'automotive_design' ) ;
#229 = EDGE_LOOP ( 'NONE', ( #248, #210, #183, #68 ) ) ;
#230 = CYLINDRICAL_SURFACE ( 'NONE', #164, 0.4374999999999998890 ) ;
#231 = AXIS2_PLACEMENT_3D ( 'NONE', #204, #25, #283 ) ;
#232 = AXIS2_PLACEMENT_3D ( 'NONE', #261, #103, #284 ) ;
#233 =( NAMED_UNIT ( * ) PLANE_ANGLE_UNIT ( ) SI_UNIT ( $, .RADIAN. ) );
#234 = EDGE_LOOP ( 'NONE', ( #64, #159 ) ) ;
#235 = CARTESIAN_POINT ( 'NONE',  ( 0.000000000000000000, -2.846158715045951882E-17, 0.1562500000000000000 ) ) ;
#236 = ADVANCED_FACE ( 'NONE', ( #278 ), #70, .F. ) ;
#237 = DIRECTION ( 'NONE',  ( -0.000000000000000000, -0.000000000000000000, -1.000000000000000000 ) ) ;
#238 = DIRECTION ( 'NONE',  ( -0.000000000000000000, -0.000000000000000000, -1.000000000000000000 ) ) ;
#239 = DIRECTION ( 'NONE',  ( -1.000000000000000000, 0.000000000000000000, 0.000000000000000000 ) ) ;
#240 = LINE ( 'NONE', #81, #254 ) ;
#241 = CARTESIAN_POINT ( 'NONE',  ( 0.4999999999999998335, 3.277075280690812921E-17, -0.1562500000000000000 ) ) ;
#242 = EDGE_CURVE ( 'NONE', #182, #137, #56, .T. ) ;
#243 = EDGE_CURVE ( 'NONE', #12, #153, #124, .T. ) ;
#244 = AXIS2_PLACEMENT_3D ( 'NONE', #277, #24, #188 ) ;
#245 = ORIENTED_EDGE ( 'NONE', *, *, #179, .T. ) ;
#246 = ORIENTED_EDGE ( 'NONE', *, *, #82, .T. ) ;
#247 = ORIENTED_EDGE ( 'NONE', *, *, #212, .T. ) ;
#248 = ORIENTED_EDGE ( 'NONE', *, *, #285, .T. ) ;
#249 = DIMENSIONAL_EXPONENTS ( 1.000000000000000000, 0.000000000000000000, 0.000000000000000000, 0.000000000000000000, 0.000000000000000000, 0.000000000000000000, 0.000000000000000000 ) ;
#250 = ORIENTED_EDGE ( 'NONE', *, *, #186, .T. ) ;
#251 = ADVANCED_FACE ( 'NONE', ( #51 ), #230, .T. ) ;
#252 = CARTESIAN_POINT ( 'NONE',  ( 0.000000000000000000, -2.846158715045951882E-17, -0.1562500000000000000 ) ) ;
#253 = DIRECTION ( 'NONE',  ( -0.000000000000000000, -0.000000000000000000, -1.000000000000000000 ) ) ;
#254 = VECTOR ( 'NONE', #289, 39.37007874015748143 ) ;
#255 = EDGE_CURVE ( 'NONE', #156, #44, #36, .T. ) ;
#256 = FACE_BOUND ( 'NONE', #86, .T. ) ;
#257 = SHAPE_DEFINITION_REPRESENTATION ( #139, #266 ) ;
#258 = UNCERTAINTY_MEASURE_WITH_UNIT (LENGTH_MEASURE( 1.000000000000000082E-05 ), #58, 'distance_accuracy_value', 'NONE');
#259 = DIRECTION ( 'NONE',  ( -0.000000000000000000, -0.000000000000000000, -1.000000000000000000 ) ) ;
#260 =( NAMED_UNIT ( * ) PLANE_ANGLE_UNIT ( ) SI_UNIT ( $, .RADIAN. ) );
#261 = CARTESIAN_POINT ( 'NONE',  ( 0.000000000000000000, -2.846158715045951882E-17, -0.1562500000000000000 ) ) ;
#262 =( LENGTH_UNIT ( ) NAMED_UNIT ( * ) SI_UNIT ( $, .METRE. ) );
#263 = CARTESIAN_POINT ( 'NONE',  ( 0.4374999999999998890, 2.511671031223717937E-17, -0.1562500000000000000 ) ) ;
#264 = PRESENTATION_STYLE_ASSIGNMENT (( #288 ) ) ;
#265 = DIRECTION ( 'NONE',  ( -1.000000000000000000, 0.000000000000000000, 0.000000000000000000 ) ) ;
#266 = ADVANCED_BREP_SHAPE_REPRESENTATION ( 'WCP-1000 Rev1', ( #225, #94 ), #67 ) ;
#267 = ORIENTED_EDGE ( 'NONE', *, *, #34, .F. ) ;
#268 = DIRECTION ( 'NONE',  ( -1.000000000000000000, 0.000000000000000000, 0.000000000000000000 ) ) ;
#269 = AXIS2_PLACEMENT_3D ( 'NONE', #53, #5, #217 ) ;
#270 = PRODUCT_DEFINITION ( 'UNKNOWN', '', #98, #87 ) ;
#271 = ORIENTED_EDGE ( 'NONE', *, *, #152, .T. ) ;
#272 = ORIENTED_EDGE ( 'NONE', *, *, #243, .T. ) ;
#273 = ADVANCED_FACE ( 'NONE', ( #48 ), #74, .T. ) ;
#274 = VERTEX_POINT ( 'NONE', #119 ) ;
#275 = MECHANICAL_DESIGN_GEOMETRIC_PRESENTATION_REPRESENTATION (  '', ( #61 ), #72 ) ;
#276 = EDGE_LOOP ( 'NONE', ( #178, #46 ) ) ;
#277 = CARTESIAN_POINT ( 'NONE',  ( 0.000000000000000000, 0.4999999999999998335, 0.09375000000000009714 ) ) ;
#278 = FACE_OUTER_BOUND ( 'NONE', #116, .T. ) ;
#279 = DIRECTION ( 'NONE',  ( -1.000000000000000000, 0.000000000000000000, 0.000000000000000000 ) ) ;
#280 = PRODUCT_RELATED_PRODUCT_CATEGORY ( 'part', '', ( #121 ) ) ;
#281 = CARTESIAN_POINT ( 'NONE',  ( 0.000000000000000000, -2.846158715045951882E-17, 0.09375000000000005551 ) ) ;
#282 = AXIS2_PLACEMENT_3D ( 'NONE', #109, #216, #268 ) ;
#283 = DIRECTION ( 'NONE',  ( -1.000000000000000000, 0.000000000000000000, 0.000000000000000000 ) ) ;
#284 = DIRECTION ( 'NONE',  ( -1.000000000000000000, 0.000000000000000000, 0.000000000000000000 ) ) ;
#285 = EDGE_CURVE ( 'NONE', #99, #227, #105, .T. ) ;
#286 = CARTESIAN_POINT ( 'NONE',  ( -0.4374999999999998890, -2.846158715045951882E-17, 0.09375000000000005551 ) ) ;
#287 = LINE ( 'NONE', #84, #140 ) ;
#288 = SURFACE_STYLE_USAGE ( .BOTH. , #173 ) ;
#289 = DIRECTION ( 'NONE',  ( -0.000000000000000000, -0.000000000000000000, -1.000000000000000000 ) ) ;
#290 = DIRECTION ( 'NONE',  ( -0.000000000000000000, -0.000000000000000000, -1.000000000000000000 ) ) ;
#291 = AXIS2_PLACEMENT_3D ( 'NONE', #281, #100, #213 ) ;
#292 = ORIENTED_EDGE ( 'NONE', *, *, #179, .F. ) ;
#293 = VECTOR ( 'NONE', #220, 39.37007874015748143 ) ;
#294 = AXIS2_PLACEMENT_3D ( 'NONE', #3, #104, #202 ) ;
#295 = ORIENTED_EDGE ( 'NONE', *, *, #40, .T. ) ;
#296 = ORIENTED_EDGE ( 'NONE', *, *, #242, .F. ) ;
#297 = ORIENTED_EDGE ( 'NONE', *, *, #82, .F. ) ;
#298 = ADVANCED_FACE ( 'NONE', ( #189, #162 ), #52, .T. ) ;
#299 = EDGE_CURVE ( 'NONE', #227, #99, #203, .T. ) ;
#300 = CIRCLE ( 'NONE', #42, 0.4999999999999998335 ) ;
#301 = DIRECTION ( 'NONE',  ( -0.000000000000000000, -0.000000000000000000, -1.000000000000000000 ) ) ;
#302 = DIRECTION ( 'NONE',  ( -1.000000000000000000, 0.000000000000000000, 0.000000000000000000 ) ) ;
#303 = AXIS2_PLACEMENT_3D ( 'NONE', #1, #118, #279 ) ;
ENDSEC;
END-ISO-10303-21;
