ISO-10303-21;
HEADER;
FILE_DESCRIPTION (( 'STEP AP214' ),
    '1' );
FILE_NAME ('WCP-0999 Rev1.step',
    '2023-12-22T21:48:26',
    ( '' ),
    ( '' ),
    'SwSTEP 2.0',
    'SolidWorks 2022',
    '' );
FILE_SCHEMA (( 'AUTOMOTIVE_DESIGN' ));
ENDSEC;

DATA;
#1 = LINE ( 'NONE', #118, #83 ) ;
#2 = VERTEX_POINT ( 'NONE', #160 ) ;
#3 =( LENGTH_UNIT ( ) NAMED_UNIT ( * ) SI_UNIT ( $, .METRE. ) );
#4 = CARTESIAN_POINT ( 'NONE',  ( 0.000000000000000000, -2.846158715045953731E-17, 0.09375000000000005551 ) ) ;
#5 = AXIS2_PLACEMENT_3D ( 'NONE', #82, #32, #263 ) ;
#6 = CARTESIAN_POINT ( 'NONE',  ( 0.000000000000000000, -2.846158715045953731E-17, -0.1562500000000000000 ) ) ;
#7 = ORIENTED_EDGE ( 'NONE', *, *, #77, .F. ) ;
#8 = ORIENTED_EDGE ( 'NONE', *, *, #31, .F. ) ;
#9 = EDGE_CURVE ( 'NONE', #151, #198, #57, .T. ) ;
#10 = DIRECTION ( 'NONE',  ( -0.000000000000000000, -0.000000000000000000, -1.000000000000000000 ) ) ;
#11 =( GEOMETRIC_REPRESENTATION_CONTEXT ( 3 ) GLOBAL_UNCERTAINTY_ASSIGNED_CONTEXT ( ( #152 ) ) GLOBAL_UNIT_ASSIGNED_CONTEXT ( ( #286, #244, #113 ) ) REPRESENTATION_CONTEXT ( 'NONE', 'WORKASPACE' ) );
#12 = ORIENTED_EDGE ( 'NONE', *, *, #49, .T. ) ;
#13 = DIRECTION ( 'NONE',  ( 1.000000000000000000, 0.000000000000000000, 0.000000000000000000 ) ) ;
#14 = CARTESIAN_POINT ( 'NONE',  ( -0.2711692900000000073, -2.846158715045953731E-17, -0.1562500000000000000 ) ) ;
#15 = SURFACE_SIDE_STYLE ('',( #102 ) ) ;
#16 = EDGE_CURVE ( 'NONE', #147, #192, #18, .T. ) ;
#17 = VECTOR ( 'NONE', #253, 39.37007874015748143 ) ;
#18 = CIRCLE ( 'NONE', #271, 0.3749999999999999445 ) ;
#19 = CIRCLE ( 'NONE', #64, 0.4375000000000000555 ) ;
#20 = DIRECTION ( 'NONE',  ( -0.000000000000000000, -0.000000000000000000, -1.000000000000000000 ) ) ;
#21 = ADVANCED_FACE ( 'NONE', ( #111 ), #205, .T. ) ;
#22 = ORIENTED_EDGE ( 'NONE', *, *, #261, .F. ) ;
#23 = PRODUCT_DEFINITION_FORMATION_WITH_SPECIFIED_SOURCE ( 'ANY', '', #215, .NOT_KNOWN. ) ;
#24 = ORIENTED_EDGE ( 'NONE', *, *, #140, .T. ) ;
#25 = VERTEX_POINT ( 'NONE', #284 ) ;
#26 = VERTEX_POINT ( 'NONE', #107 ) ;
#27 = VECTOR ( 'NONE', #44, 39.37007874015748143 ) ;
#28 = VERTEX_POINT ( 'NONE', #36 ) ;
#29 = CIRCLE ( 'NONE', #296, 0.3749999999999999445 ) ;
#30 = CIRCLE ( 'NONE', #5, 0.2711692900000000073 ) ;
#31 = EDGE_CURVE ( 'NONE', #2, #175, #46, .T. ) ;
#32 = DIRECTION ( 'NONE',  ( -0.000000000000000000, -0.000000000000000000, -1.000000000000000000 ) ) ;
#33 = EDGE_CURVE ( 'NONE', #198, #26, #258, .T. ) ;
#34 = CARTESIAN_POINT ( 'NONE',  ( 0.000000000000000000, -2.846158715045953731E-17, 0.1562500000000000833 ) ) ;
#35 = PRODUCT_CONTEXT ( 'NONE', #235, 'mechanical' ) ;
#36 = CARTESIAN_POINT ( 'NONE',  ( -0.2711692900000000073, -2.846158715045953731E-17, 0.1562500000000000000 ) ) ;
#37 = CARTESIAN_POINT ( 'NONE',  ( -0.3749999999999999445, -2.846158715045953731E-17, 0.09375000000000005551 ) ) ;
#38 = DIRECTION ( 'NONE',  ( 0.000000000000000000, 0.000000000000000000, 1.000000000000000000 ) ) ;
#39 = CARTESIAN_POINT ( 'NONE',  ( 0.000000000000000000, -2.846158715045953731E-17, -0.1562500000000000833 ) ) ;
#40 = PRESENTATION_LAYER_ASSIGNMENT (  '', '', ( #254 ) ) ;
#41 = FACE_BOUND ( 'NONE', #120, .T. ) ;
#42 = FILL_AREA_STYLE_COLOUR ( '', #75 ) ;
#43 = FACE_BOUND ( 'NONE', #224, .T. ) ;
#44 = DIRECTION ( 'NONE',  ( -0.000000000000000000, -0.000000000000000000, -1.000000000000000000 ) ) ;
#45 = CIRCLE ( 'NONE', #291, 0.4375000000000000555 ) ;
#46 = CIRCLE ( 'NONE', #91, 0.4375000000000000000 ) ;
#47 = AXIS2_PLACEMENT_3D ( 'NONE', #39, #184, #274 ) ;
#48 = ORIENTED_EDGE ( 'NONE', *, *, #33, .T. ) ;
#49 = EDGE_CURVE ( 'NONE', #192, #147, #29, .T. ) ;
#50 = EDGE_LOOP ( 'NONE', ( #256, #222 ) ) ;
#51 = DIRECTION ( 'NONE',  ( -1.000000000000000000, 0.000000000000000000, 0.000000000000000000 ) ) ;
#52 = EDGE_LOOP ( 'NONE', ( #62, #101, #108, #259 ) ) ;
#53 = COLOUR_RGB ( '',0.6196078431372549211, 0.4078431372549019551, 0.2000000000000000111 ) ;
#54 = EDGE_LOOP ( 'NONE', ( #146, #56, #8, #301 ) ) ;
#55 = ADVANCED_FACE ( 'NONE', ( #289 ), #203, .F. ) ;
#56 = ORIENTED_EDGE ( 'NONE', *, *, #261, .T. ) ;
#57 = LINE ( 'NONE', #109, #202 ) ;
#58 = DIRECTION ( 'NONE',  ( -1.000000000000000000, 0.000000000000000000, 0.000000000000000000 ) ) ;
#59 = ORIENTED_EDGE ( 'NONE', *, *, #33, .F. ) ;
#60 = APPLICATION_PROTOCOL_DEFINITION ( 'draft international standard', 'automotive_design', 1998, #235 ) ;
#61 = DIRECTION ( 'NONE',  ( -1.000000000000000000, 0.000000000000000000, 0.000000000000000000 ) ) ;
#62 = ORIENTED_EDGE ( 'NONE', *, *, #250, .F. ) ;
#63 = DIRECTION ( 'NONE',  ( -0.000000000000000000, -0.000000000000000000, -1.000000000000000000 ) ) ;
#64 = AXIS2_PLACEMENT_3D ( 'NONE', #34, #129, #227 ) ;
#65 = CARTESIAN_POINT ( 'NONE',  ( 0.000000000000000000, -2.846158715045953731E-17, 0.1562500000000000000 ) ) ;
#66 =( NAMED_UNIT ( * ) SI_UNIT ( $, .STERADIAN. ) SOLID_ANGLE_UNIT ( ) );
#67 = DIRECTION ( 'NONE',  ( 1.000000000000000000, 0.000000000000000000, -0.000000000000000000 ) ) ;
#68 = DIMENSIONAL_EXPONENTS ( 1.000000000000000000, 0.000000000000000000, 0.000000000000000000, 0.000000000000000000, 0.000000000000000000, 0.000000000000000000, 0.000000000000000000 ) ;
#69 = EDGE_CURVE ( 'NONE', #240, #143, #292, .T. ) ;
#70 = DIRECTION ( 'NONE',  ( -1.000000000000000000, 0.000000000000000000, 0.000000000000000000 ) ) ;
#71 = DIRECTION ( 'NONE',  ( -0.000000000000000000, -0.000000000000000000, -1.000000000000000000 ) ) ;
#72 = CARTESIAN_POINT ( 'NONE',  ( 0.000000000000000000, -2.846158715045953731E-17, -0.1562500000000000000 ) ) ;
#73 =( NAMED_UNIT ( * ) SI_UNIT ( $, .STERADIAN. ) SOLID_ANGLE_UNIT ( ) );
#74 = CIRCLE ( 'NONE', #303, 0.4375000000000000000 ) ;
#75 = COLOUR_RGB ( '',0.6196078431372549211, 0.4078431372549019551, 0.2000000000000000111 ) ;
#76 = VERTEX_POINT ( 'NONE', #282 ) ;
#77 = EDGE_CURVE ( 'NONE', #26, #198, #30, .T. ) ;
#78 = UNCERTAINTY_MEASURE_WITH_UNIT (LENGTH_MEASURE( 1.000000000000000082E-05 ), #281, 'distance_accuracy_value', 'NONE');
#79 = ORIENTED_EDGE ( 'NONE', *, *, #221, .F. ) ;
#80 = EDGE_LOOP ( 'NONE', ( #123, #132 ) ) ;
#81 = DIRECTION ( 'NONE',  ( -0.000000000000000000, -0.000000000000000000, -1.000000000000000000 ) ) ;
#82 = CARTESIAN_POINT ( 'NONE',  ( 0.000000000000000000, -2.846158715045953731E-17, -0.1562500000000000278 ) ) ;
#83 = VECTOR ( 'NONE', #212, 39.37007874015748143 ) ;
#84 = CYLINDRICAL_SURFACE ( 'NONE', #279, 0.4375000000000000555 ) ;
#85 = ORIENTED_EDGE ( 'NONE', *, *, #180, .F. ) ;
#86 = DIRECTION ( 'NONE',  ( -0.000000000000000000, -0.000000000000000000, -1.000000000000000000 ) ) ;
#87 =( LENGTH_UNIT ( ) NAMED_UNIT ( * ) SI_UNIT ( $, .METRE. ) );
#88 = ADVANCED_FACE ( 'NONE', ( #242 ), #84, .T. ) ;
#89 = AXIS2_PLACEMENT_3D ( 'NONE', #236, #234, #213 ) ;
#90 = DIRECTION ( 'NONE',  ( 0.000000000000000000, 0.000000000000000000, 1.000000000000000000 ) ) ;
#91 = AXIS2_PLACEMENT_3D ( 'NONE', #124, #86, #154 ) ;
#92 = EDGE_CURVE ( 'NONE', #76, #25, #19, .T. ) ;
#93 = CARTESIAN_POINT ( 'NONE',  ( 0.2711692900000000073, 4.747073152096501745E-18, 0.1562500000000000000 ) ) ;
#94 = CARTESIAN_POINT ( 'NONE',  ( 0.000000000000000000, 0.4375000000000000000, 0.09375000000000005551 ) ) ;
#95 = FACE_OUTER_BOUND ( 'NONE', #194, .T. ) ;
#96 = EDGE_CURVE ( 'NONE', #28, #26, #135, .T. ) ;
#97 =( LENGTH_UNIT ( ) NAMED_UNIT ( * ) SI_UNIT ( $, .METRE. ) );
#98 = PRODUCT_DEFINITION_SHAPE ( 'NONE', 'NONE',  #273 ) ;
#99 = CARTESIAN_POINT ( 'NONE',  ( 0.4375000000000000555, 2.511671031223717321E-17, -0.1562500000000000000 ) ) ;
#100 = ORIENTED_EDGE ( 'NONE', *, *, #77, .T. ) ;
#101 = ORIENTED_EDGE ( 'NONE', *, *, #16, .T. ) ;
#102 = SURFACE_STYLE_FILL_AREA ( #302 ) ;
#103 = EDGE_LOOP ( 'NONE', ( #22, #245, #173, #287 ) ) ;
#104 = ORIENTED_EDGE ( 'NONE', *, *, #49, .F. ) ;
#105 = AXIS2_PLACEMENT_3D ( 'NONE', #268, #247, #126 ) ;
#106 = CARTESIAN_POINT ( 'NONE',  ( 0.000000000000000000, -2.846158715045953731E-17, -0.1562500000000000000 ) ) ;
#107 = CARTESIAN_POINT ( 'NONE',  ( -0.2711692900000000073, -2.846158715045953731E-17, -0.1562500000000000278 ) ) ;
#108 = ORIENTED_EDGE ( 'NONE', *, *, #221, .T. ) ;
#109 = CARTESIAN_POINT ( 'NONE',  ( 0.2711692900000000073, 4.747073152096501745E-18, -0.1562500000000000000 ) ) ;
#110 = LENGTH_MEASURE_WITH_UNIT ( LENGTH_MEASURE( 0.02539999999999999897 ), #87 );
#111 = FACE_OUTER_BOUND ( 'NONE', #172, .T. ) ;
#112 = DIRECTION ( 'NONE',  ( -0.000000000000000000, -0.000000000000000000, -1.000000000000000000 ) ) ;
#113 =( NAMED_UNIT ( * ) SI_UNIT ( $, .STERADIAN. ) SOLID_ANGLE_UNIT ( ) );
#114 = AXIS2_PLACEMENT_3D ( 'NONE', #6, #81, #58 ) ;
#115 = FACE_BOUND ( 'NONE', #174, .T. ) ;
#116 = VECTOR ( 'NONE', #112, 39.37007874015748143 ) ;
#117 = CARTESIAN_POINT ( 'NONE',  ( -0.3749999999999999445, -2.846158715045953731E-17, -0.1562500000000000833 ) ) ;
#118 = CARTESIAN_POINT ( 'NONE',  ( -0.3749999999999999445, -2.846158715045953731E-17, -0.1562500000000000000 ) ) ;
#119 = CARTESIAN_POINT ( 'NONE',  ( 0.3749999999999999445, 1.746266781756620179E-17, -0.1562500000000000000 ) ) ;
#120 = EDGE_LOOP ( 'NONE', ( #219, #241 ) ) ;
#121 = APPLICATION_CONTEXT ( 'automotive_design' ) ;
#122 = ADVANCED_FACE ( 'NONE', ( #211 ), #290, .T. ) ;
#123 = ORIENTED_EDGE ( 'NONE', *, *, #92, .F. ) ;
#124 = CARTESIAN_POINT ( 'NONE',  ( 0.000000000000000000, -2.846158715045953731E-17, 0.09375000000000005551 ) ) ;
#125 = AXIS2_PLACEMENT_3D ( 'NONE', #230, #210, #206 ) ;
#126 = DIRECTION ( 'NONE',  ( -1.000000000000000000, 0.000000000000000000, 0.000000000000000000 ) ) ;
#127 = ORIENTED_EDGE ( 'NONE', *, *, #140, .F. ) ;
#128 = PRODUCT_RELATED_PRODUCT_CATEGORY ( 'part', '', ( #215 ) ) ;
#129 = DIRECTION ( 'NONE',  ( -0.000000000000000000, -0.000000000000000000, -1.000000000000000000 ) ) ;
#130 = SURFACE_STYLE_FILL_AREA ( #264 ) ;
#131 = ADVANCED_FACE ( 'NONE', ( #41, #232 ), #238, .T. ) ;
#132 = ORIENTED_EDGE ( 'NONE', *, *, #257, .F. ) ;
#133 = AXIS2_PLACEMENT_3D ( 'NONE', #162, #283, #229 ) ;
#134 = CARTESIAN_POINT ( 'NONE',  ( 0.000000000000000000, 0.000000000000000000, 0.000000000000000000 ) ) ;
#135 = LINE ( 'NONE', #14, #116 ) ;
#136 = CARTESIAN_POINT ( 'NONE',  ( 0.3749999999999999445, 1.746266781756620179E-17, 0.09375000000000005551 ) ) ;
#137 = STYLED_ITEM ( 'NONE', ( #181 ), #165 ) ;
#138 = PLANE ( 'NONE',  #89 ) ;
#139 = DIRECTION ( 'NONE',  ( -1.000000000000000000, 0.000000000000000000, 0.000000000000000000 ) ) ;
#140 = EDGE_CURVE ( 'NONE', #143, #240, #272, .T. ) ;
#141 = AXIS2_PLACEMENT_3D ( 'NONE', #94, #187, #70 ) ;
#142 = DIRECTION ( 'NONE',  ( -1.000000000000000000, 0.000000000000000000, 0.000000000000000000 ) ) ;
#143 = VERTEX_POINT ( 'NONE', #117 ) ;
#144 = PLANE ( 'NONE',  #141 ) ;
#145 =( NAMED_UNIT ( * ) PLANE_ANGLE_UNIT ( ) SI_UNIT ( $, .RADIAN. ) );
#146 = ORIENTED_EDGE ( 'NONE', *, *, #92, .T. ) ;
#147 = VERTEX_POINT ( 'NONE', #136 ) ;
#148 =( GEOMETRIC_REPRESENTATION_CONTEXT ( 3 ) GLOBAL_UNCERTAINTY_ASSIGNED_CONTEXT ( ( #78 ) ) GLOBAL_UNIT_ASSIGNED_CONTEXT ( ( #281, #267, #66 ) ) REPRESENTATION_CONTEXT ( 'NONE', 'WORKASPACE' ) );
#149 = EDGE_CURVE ( 'NONE', #28, #151, #157, .T. ) ;
#150 = CYLINDRICAL_SURFACE ( 'NONE', #114, 0.3749999999999999445 ) ;
#151 = VERTEX_POINT ( 'NONE', #93 ) ;
#152 = UNCERTAINTY_MEASURE_WITH_UNIT (LENGTH_MEASURE( 1.000000000000000082E-05 ), #286, 'distance_accuracy_value', 'NONE');
#153 = ORIENTED_EDGE ( 'NONE', *, *, #16, .F. ) ;
#154 = DIRECTION ( 'NONE',  ( -1.000000000000000000, 0.000000000000000000, 0.000000000000000000 ) ) ;
#155 = LENGTH_MEASURE_WITH_UNIT ( LENGTH_MEASURE( 0.02539999999999999897 ), #3 );
#156 = UNCERTAINTY_MEASURE_WITH_UNIT (LENGTH_MEASURE( 1.000000000000000082E-05 ), #233, 'distance_accuracy_value', 'NONE');
#157 = CIRCLE ( 'NONE', #163, 0.2711692900000000073 ) ;
#158 = DIRECTION ( 'NONE',  ( -0.000000000000000000, -0.000000000000000000, -1.000000000000000000 ) ) ;
#159 = EDGE_CURVE ( 'NONE', #76, #2, #164, .T. ) ;
#160 = CARTESIAN_POINT ( 'NONE',  ( -0.4375000000000000000, -2.846158715045953731E-17, 0.09375000000000005551 ) ) ;
#161 = EDGE_LOOP ( 'NONE', ( #237, #177, #191, #100 ) ) ;
#162 = CARTESIAN_POINT ( 'NONE',  ( 0.000000000000000000, -2.846158715045953731E-17, -0.1562500000000000278 ) ) ;
#163 = AXIS2_PLACEMENT_3D ( 'NONE', #65, #280, #294 ) ;
#164 = LINE ( 'NONE', #293, #195 ) ;
#165 = ADVANCED_BREP_SHAPE_REPRESENTATION ( 'WCP-0999 Rev1', ( #193, #166 ), #148 ) ;
#166 = AXIS2_PLACEMENT_3D ( 'NONE', #134, #38, #13 ) ;
#167 = ADVANCED_FACE ( 'NONE', ( #275, #115 ), #144, .T. ) ;
#168 = CARTESIAN_POINT ( 'NONE',  ( 0.4375000000000000000, 2.511671031223716704E-17, 0.09375000000000005551 ) ) ;
#169 = CARTESIAN_POINT ( 'NONE',  ( 0.000000000000000000, -2.846158715045953731E-17, 0.1562500000000000833 ) ) ;
#170 =( GEOMETRIC_REPRESENTATION_CONTEXT ( 3 ) GLOBAL_UNCERTAINTY_ASSIGNED_CONTEXT ( ( #156 ) ) GLOBAL_UNIT_ASSIGNED_CONTEXT ( ( #233, #145, #73 ) ) REPRESENTATION_CONTEXT ( 'NONE', 'WORKASPACE' ) );
#171 = AXIS2_PLACEMENT_3D ( 'NONE', #251, #248, #216 ) ;
#172 = EDGE_LOOP ( 'NONE', ( #12, #220, #127, #79 ) ) ;
#173 = ORIENTED_EDGE ( 'NONE', *, *, #159, .T. ) ;
#174 = EDGE_LOOP ( 'NONE', ( #104, #153 ) ) ;
#175 = VERTEX_POINT ( 'NONE', #168 ) ;
#176 = DIRECTION ( 'NONE',  ( -0.000000000000000000, -0.000000000000000000, -1.000000000000000000 ) ) ;
#177 = ORIENTED_EDGE ( 'NONE', *, *, #149, .F. ) ;
#178 = DIRECTION ( 'NONE',  ( -0.000000000000000000, -0.000000000000000000, -1.000000000000000000 ) ) ;
#179 = CARTESIAN_POINT ( 'NONE',  ( 0.000000000000000000, -2.846158715045953731E-17, -0.1562500000000000000 ) ) ;
#180 = EDGE_CURVE ( 'NONE', #151, #28, #185, .T. ) ;
#181 = PRESENTATION_STYLE_ASSIGNMENT (( #288 ) ) ;
#182 = ORIENTED_EDGE ( 'NONE', *, *, #96, .F. ) ;
#183 = DIRECTION ( 'NONE',  ( -0.000000000000000000, -0.000000000000000000, -1.000000000000000000 ) ) ;
#184 = DIRECTION ( 'NONE',  ( -0.000000000000000000, -0.000000000000000000, -1.000000000000000000 ) ) ;
#185 = CIRCLE ( 'NONE', #171, 0.2711692900000000073 ) ;
#186 = CARTESIAN_POINT ( 'NONE',  ( 0.000000000000000000, 0.2711692900000000073, 0.1562500000000000833 ) ) ;
#187 = DIRECTION ( 'NONE',  ( -0.000000000000000000, 0.000000000000000000, -1.000000000000000000 ) ) ;
#188 = CYLINDRICAL_SURFACE ( 'NONE', #201, 0.2711692900000000073 ) ;
#189 = CLOSED_SHELL ( 'NONE', ( #21, #122, #249, #255, #55, #131, #88, #167, #298 ) ) ;
#190 = CARTESIAN_POINT ( 'NONE',  ( 0.000000000000000000, -2.846158715045953731E-17, 0.09375000000000005551 ) ) ;
#191 = ORIENTED_EDGE ( 'NONE', *, *, #96, .T. ) ;
#192 = VERTEX_POINT ( 'NONE', #37 ) ;
#193 = MANIFOLD_SOLID_BREP ( 'Revolve1', #189 ) ;
#194 = EDGE_LOOP ( 'NONE', ( #85, #278, #48, #182 ) ) ;
#195 = VECTOR ( 'NONE', #295, 39.37007874015748143 ) ;
#196 = DIRECTION ( 'NONE',  ( -1.000000000000000000, 0.000000000000000000, 0.000000000000000000 ) ) ;
#197 = PRODUCT_DEFINITION_CONTEXT ( 'detailed design', #121, 'design' ) ;
#198 = VERTEX_POINT ( 'NONE', #217 ) ;
#199 = FILL_AREA_STYLE_COLOUR ( '', #53 ) ;
#200 = CARTESIAN_POINT ( 'NONE',  ( 0.000000000000000000, -2.846158715045953731E-17, -0.1562500000000000000 ) ) ;
#201 = AXIS2_PLACEMENT_3D ( 'NONE', #72, #71, #139 ) ;
#202 = VECTOR ( 'NONE', #10, 39.37007874015748143 ) ;
#203 = CYLINDRICAL_SURFACE ( 'NONE', #209, 0.2711692900000000073 ) ;
#204 = SHAPE_DEFINITION_REPRESENTATION ( #98, #165 ) ;
#205 = CYLINDRICAL_SURFACE ( 'NONE', #228, 0.3749999999999999445 ) ;
#206 = DIRECTION ( 'NONE',  ( -1.000000000000000000, 0.000000000000000000, 0.000000000000000000 ) ) ;
#207 = MECHANICAL_DESIGN_GEOMETRIC_PRESENTATION_REPRESENTATION (  '', ( #254 ), #170 ) ;
#208 = SURFACE_STYLE_USAGE ( .BOTH. , #15 ) ;
#209 = AXIS2_PLACEMENT_3D ( 'NONE', #106, #183, #270 ) ;
#210 = DIRECTION ( 'NONE',  ( -0.000000000000000000, -0.000000000000000000, -1.000000000000000000 ) ) ;
#211 = FACE_OUTER_BOUND ( 'NONE', #54, .T. ) ;
#212 = DIRECTION ( 'NONE',  ( -0.000000000000000000, -0.000000000000000000, -1.000000000000000000 ) ) ;
#213 = DIRECTION ( 'NONE',  ( -1.000000000000000000, 0.000000000000000000, 0.000000000000000000 ) ) ;
#214 = LINE ( 'NONE', #119, #27 ) ;
#215 = PRODUCT ( 'WCP-0999 Rev1', 'WCP-0999 Rev1', '', ( #35 ) ) ;
#216 = DIRECTION ( 'NONE',  ( -1.000000000000000000, 0.000000000000000000, 0.000000000000000000 ) ) ;
#217 = CARTESIAN_POINT ( 'NONE',  ( 0.2711692900000000073, 4.747073152096501745E-18, -0.1562500000000000278 ) ) ;
#218 = ORIENTED_EDGE ( 'NONE', *, *, #69, .T. ) ;
#219 = ORIENTED_EDGE ( 'NONE', *, *, #149, .T. ) ;
#220 = ORIENTED_EDGE ( 'NONE', *, *, #250, .T. ) ;
#221 = EDGE_CURVE ( 'NONE', #192, #143, #1, .T. ) ;
#222 = ORIENTED_EDGE ( 'NONE', *, *, #266, .T. ) ;
#223 = AXIS2_PLACEMENT_3D ( 'NONE', #186, #90, #67 ) ;
#224 = EDGE_LOOP ( 'NONE', ( #7, #59 ) ) ;
#225 = APPLICATION_PROTOCOL_DEFINITION ( 'draft international standard', 'automotive_design', 1998, #121 ) ;
#226 = DIRECTION ( 'NONE',  ( -1.000000000000000000, 0.000000000000000000, 0.000000000000000000 ) ) ;
#227 = DIRECTION ( 'NONE',  ( -1.000000000000000000, 0.000000000000000000, 0.000000000000000000 ) ) ;
#228 = AXIS2_PLACEMENT_3D ( 'NONE', #200, #158, #243 ) ;
#229 = DIRECTION ( 'NONE',  ( -1.000000000000000000, 0.000000000000000000, 0.000000000000000000 ) ) ;
#230 = CARTESIAN_POINT ( 'NONE',  ( 0.000000000000000000, -2.846158715045953731E-17, -0.1562500000000000000 ) ) ;
#231 = DIMENSIONAL_EXPONENTS ( 1.000000000000000000, 0.000000000000000000, 0.000000000000000000, 0.000000000000000000, 0.000000000000000000, 0.000000000000000000, 0.000000000000000000 ) ;
#232 = FACE_OUTER_BOUND ( 'NONE', #80, .T. ) ;
#233 =( CONVERSION_BASED_UNIT ( 'INCH', #297 ) LENGTH_UNIT ( ) NAMED_UNIT ( #276 ) );
#234 = DIRECTION ( 'NONE',  ( -0.000000000000000000, 0.000000000000000000, -1.000000000000000000 ) ) ;
#235 = APPLICATION_CONTEXT ( 'automotive_design' ) ;
#236 = CARTESIAN_POINT ( 'NONE',  ( 0.000000000000000000, 0.3749999999999999445, -0.1562500000000000833 ) ) ;
#237 = ORIENTED_EDGE ( 'NONE', *, *, #9, .F. ) ;
#238 = PLANE ( 'NONE',  #223 ) ;
#239 = PRESENTATION_STYLE_ASSIGNMENT (( #208 ) ) ;
#240 = VERTEX_POINT ( 'NONE', #277 ) ;
#241 = ORIENTED_EDGE ( 'NONE', *, *, #180, .T. ) ;
#242 = FACE_OUTER_BOUND ( 'NONE', #103, .T. ) ;
#243 = DIRECTION ( 'NONE',  ( -1.000000000000000000, 0.000000000000000000, 0.000000000000000000 ) ) ;
#244 =( NAMED_UNIT ( * ) PLANE_ANGLE_UNIT ( ) SI_UNIT ( $, .RADIAN. ) );
#245 = ORIENTED_EDGE ( 'NONE', *, *, #257, .T. ) ;
#246 = PRESENTATION_LAYER_ASSIGNMENT (  '', '', ( #137 ) ) ;
#247 = DIRECTION ( 'NONE',  ( -0.000000000000000000, -0.000000000000000000, -1.000000000000000000 ) ) ;
#248 = DIRECTION ( 'NONE',  ( -0.000000000000000000, -0.000000000000000000, -1.000000000000000000 ) ) ;
#249 = ADVANCED_FACE ( 'NONE', ( #95 ), #188, .F. ) ;
#250 = EDGE_CURVE ( 'NONE', #147, #240, #214, .T. ) ;
#251 = CARTESIAN_POINT ( 'NONE',  ( 0.000000000000000000, -2.846158715045953731E-17, 0.1562500000000000000 ) ) ;
#252 = FACE_OUTER_BOUND ( 'NONE', #300, .T. ) ;
#253 = DIRECTION ( 'NONE',  ( -0.000000000000000000, -0.000000000000000000, -1.000000000000000000 ) ) ;
#254 = STYLED_ITEM ( 'NONE', ( #239 ), #193 ) ;
#255 = ADVANCED_FACE ( 'NONE', ( #252, #43 ), #138, .T. ) ;
#256 = ORIENTED_EDGE ( 'NONE', *, *, #31, .T. ) ;
#257 = EDGE_CURVE ( 'NONE', #25, #76, #45, .T. ) ;
#258 = CIRCLE ( 'NONE', #133, 0.2711692900000000073 ) ;
#259 = ORIENTED_EDGE ( 'NONE', *, *, #69, .F. ) ;
#260 = FACE_OUTER_BOUND ( 'NONE', #52, .T. ) ;
#261 = EDGE_CURVE ( 'NONE', #25, #175, #299, .T. ) ;
#262 = CARTESIAN_POINT ( 'NONE',  ( 0.000000000000000000, -2.846158715045953731E-17, 0.09375000000000005551 ) ) ;
#263 = DIRECTION ( 'NONE',  ( -1.000000000000000000, 0.000000000000000000, 0.000000000000000000 ) ) ;
#264 = FILL_AREA_STYLE ('',( #199 ) ) ;
#265 = DIRECTION ( 'NONE',  ( -0.000000000000000000, -0.000000000000000000, -1.000000000000000000 ) ) ;
#266 = EDGE_CURVE ( 'NONE', #175, #2, #74, .T. ) ;
#267 =( NAMED_UNIT ( * ) PLANE_ANGLE_UNIT ( ) SI_UNIT ( $, .RADIAN. ) );
#268 = CARTESIAN_POINT ( 'NONE',  ( 0.000000000000000000, -2.846158715045953731E-17, -0.1562500000000000833 ) ) ;
#269 = SURFACE_SIDE_STYLE ('',( #130 ) ) ;
#270 = DIRECTION ( 'NONE',  ( -1.000000000000000000, 0.000000000000000000, 0.000000000000000000 ) ) ;
#271 = AXIS2_PLACEMENT_3D ( 'NONE', #262, #63, #226 ) ;
#272 = CIRCLE ( 'NONE', #47, 0.3749999999999999445 ) ;
#273 = PRODUCT_DEFINITION ( 'UNKNOWN', '', #23, #197 ) ;
#274 = DIRECTION ( 'NONE',  ( -1.000000000000000000, 0.000000000000000000, 0.000000000000000000 ) ) ;
#275 = FACE_OUTER_BOUND ( 'NONE', #50, .T. ) ;
#276 = DIMENSIONAL_EXPONENTS ( 1.000000000000000000, 0.000000000000000000, 0.000000000000000000, 0.000000000000000000, 0.000000000000000000, 0.000000000000000000, 0.000000000000000000 ) ;
#277 = CARTESIAN_POINT ( 'NONE',  ( 0.3749999999999999445, 1.746266781756620179E-17, -0.1562500000000000833 ) ) ;
#278 = ORIENTED_EDGE ( 'NONE', *, *, #9, .T. ) ;
#279 = AXIS2_PLACEMENT_3D ( 'NONE', #179, #265, #61 ) ;
#280 = DIRECTION ( 'NONE',  ( -0.000000000000000000, -0.000000000000000000, -1.000000000000000000 ) ) ;
#281 =( CONVERSION_BASED_UNIT ( 'INCH', #155 ) LENGTH_UNIT ( ) NAMED_UNIT ( #231 ) );
#282 = CARTESIAN_POINT ( 'NONE',  ( -0.4375000000000000555, -2.846158715045953731E-17, 0.1562500000000000833 ) ) ;
#283 = DIRECTION ( 'NONE',  ( -0.000000000000000000, -0.000000000000000000, -1.000000000000000000 ) ) ;
#284 = CARTESIAN_POINT ( 'NONE',  ( 0.4375000000000000555, 2.511671031223717321E-17, 0.1562500000000000833 ) ) ;
#285 = MECHANICAL_DESIGN_GEOMETRIC_PRESENTATION_REPRESENTATION (  '', ( #137 ), #11 ) ;
#286 =( CONVERSION_BASED_UNIT ( 'INCH', #110 ) LENGTH_UNIT ( ) NAMED_UNIT ( #68 ) );
#287 = ORIENTED_EDGE ( 'NONE', *, *, #266, .F. ) ;
#288 = SURFACE_STYLE_USAGE ( .BOTH. , #269 ) ;
#289 = FACE_OUTER_BOUND ( 'NONE', #161, .T. ) ;
#290 = CYLINDRICAL_SURFACE ( 'NONE', #125, 0.4375000000000000555 ) ;
#291 = AXIS2_PLACEMENT_3D ( 'NONE', #169, #20, #142 ) ;
#292 = CIRCLE ( 'NONE', #105, 0.3749999999999999445 ) ;
#293 = CARTESIAN_POINT ( 'NONE',  ( -0.4375000000000000555, -2.846158715045953731E-17, -0.1562500000000000000 ) ) ;
#294 = DIRECTION ( 'NONE',  ( -1.000000000000000000, 0.000000000000000000, 0.000000000000000000 ) ) ;
#295 = DIRECTION ( 'NONE',  ( -0.000000000000000000, -0.000000000000000000, -1.000000000000000000 ) ) ;
#296 = AXIS2_PLACEMENT_3D ( 'NONE', #4, #178, #196 ) ;
#297 = LENGTH_MEASURE_WITH_UNIT ( LENGTH_MEASURE( 0.02539999999999999897 ), #97 );
#298 = ADVANCED_FACE ( 'NONE', ( #260 ), #150, .T. ) ;
#299 = LINE ( 'NONE', #99, #17 ) ;
#300 = EDGE_LOOP ( 'NONE', ( #24, #218 ) ) ;
#301 = ORIENTED_EDGE ( 'NONE', *, *, #159, .F. ) ;
#302 = FILL_AREA_STYLE ('',( #42 ) ) ;
#303 = AXIS2_PLACEMENT_3D ( 'NONE', #190, #176, #51 ) ;
ENDSEC;
END-ISO-10303-21;
