ISO-10303-21;
HEADER;
FILE_DESCRIPTION (( 'STEP AP214' ),
    '1' );
FILE_NAME ('WCP-0998 Rev1.step',
    '2023-12-22T21:48:22',
    ( '' ),
    ( '' ),
    'SwSTEP 2.0',
    'SolidWorks 2022',
    '' );
FILE_SCHEMA (( 'AUTOMOTIVE_DESIGN' ));
ENDSEC;

DATA;
#1 = FACE_OUTER_BOUND ( 'NONE', #264, .T. ) ;
#2 = SURFACE_STYLE_FILL_AREA ( #74 ) ;
#3 =( GEOMETRIC_REPRESENTATION_CONTEXT ( 3 ) GLOBAL_UNCERTAINTY_ASSIGNED_CONTEXT ( ( #47 ) ) GLOBAL_UNIT_ASSIGNED_CONTEXT ( ( #143, #75, #171 ) ) REPRESENTATION_CONTEXT ( 'NONE', 'WORKASPACE' ) );
#4 = AXIS2_PLACEMENT_3D ( 'NONE', #187, #162, #236 ) ;
#5 = EDGE_CURVE ( 'NONE', #76, #172, #159, .T. ) ;
#6 = PRODUCT_DEFINITION_FORMATION_WITH_SPECIFIED_SOURCE ( 'ANY', '', #206, .NOT_KNOWN. ) ;
#7 = ORIENTED_EDGE ( 'NONE', *, *, #183, .F. ) ;
#8 = AXIS2_PLACEMENT_3D ( 'NONE', #164, #262, #166 ) ;
#9 = ORIENTED_EDGE ( 'NONE', *, *, #212, .F. ) ;
#10 = CLOSED_SHELL ( 'NONE', ( #95, #50, #59, #27, #48, #220, #150, #292, #208 ) ) ;
#11 = DIRECTION ( 'NONE',  ( -0.000000000000000000, 0.000000000000000000, -1.000000000000000000 ) ) ;
#12 = DIRECTION ( 'NONE',  ( -0.000000000000000000, -0.000000000000000000, -1.000000000000000000 ) ) ;
#13 = ORIENTED_EDGE ( 'NONE', *, *, #290, .F. ) ;
#14 = DIRECTION ( 'NONE',  ( -1.000000000000000000, 0.000000000000000000, 0.000000000000000000 ) ) ;
#15 = DIRECTION ( 'NONE',  ( -0.000000000000000000, -0.000000000000000000, -1.000000000000000000 ) ) ;
#16 = VECTOR ( 'NONE', #23, 39.37007874015748143 ) ;
#17 = AXIS2_PLACEMENT_3D ( 'NONE', #253, #81, #84 ) ;
#18 = DIRECTION ( 'NONE',  ( -0.000000000000000000, -0.000000000000000000, -1.000000000000000000 ) ) ;
#19 = CARTESIAN_POINT ( 'NONE',  ( 0.000000000000000000, -2.846158715045953731E-17, -0.1562500000000000000 ) ) ;
#20 = CARTESIAN_POINT ( 'NONE',  ( 0.4375000000000000000, 2.511671031223716704E-17, 0.09375000000000005551 ) ) ;
#21 = CARTESIAN_POINT ( 'NONE',  ( -0.4375000000000000000, -2.846158715045953731E-17, 0.09375000000000005551 ) ) ;
#22 = CARTESIAN_POINT ( 'NONE',  ( 0.000000000000000000, -2.846158715045953731E-17, -0.1562500000000000000 ) ) ;
#23 = DIRECTION ( 'NONE',  ( -0.000000000000000000, -0.000000000000000000, -1.000000000000000000 ) ) ;
#24 = FACE_BOUND ( 'NONE', #300, .T. ) ;
#25 = CARTESIAN_POINT ( 'NONE',  ( 0.000000000000000000, -2.846158715045953731E-17, 0.1562500000000000833 ) ) ;
#26 =( NAMED_UNIT ( * ) PLANE_ANGLE_UNIT ( ) SI_UNIT ( $, .RADIAN. ) );
#27 = ADVANCED_FACE ( 'NONE', ( #202, #252 ), #152, .T. ) ;
#28 = CARTESIAN_POINT ( 'NONE',  ( 0.000000000000000000, 0.000000000000000000, 0.000000000000000000 ) ) ;
#29 = AXIS2_PLACEMENT_3D ( 'NONE', #62, #111, #249 ) ;
#30 = CIRCLE ( 'NONE', #135, 0.4375000000000000555 ) ;
#31 = SHAPE_DEFINITION_REPRESENTATION ( #254, #120 ) ;
#32 = ORIENTED_EDGE ( 'NONE', *, *, #106, .F. ) ;
#33 = EDGE_CURVE ( 'NONE', #288, #295, #231, .T. ) ;
#34 = EDGE_LOOP ( 'NONE', ( #64, #269, #274, #58 ) ) ;
#35 = EDGE_LOOP ( 'NONE', ( #222, #182, #224, #7 ) ) ;
#36 = CARTESIAN_POINT ( 'NONE',  ( 0.000000000000000000, -2.846158715045953731E-17, 0.1562500000000000000 ) ) ;
#37 = DIRECTION ( 'NONE',  ( -0.000000000000000000, -0.000000000000000000, -1.000000000000000000 ) ) ;
#38 = DIRECTION ( 'NONE',  ( -1.000000000000000000, 0.000000000000000000, 0.000000000000000000 ) ) ;
#39 = DIRECTION ( 'NONE',  ( -1.000000000000000000, 0.000000000000000000, 0.000000000000000000 ) ) ;
#40 = DIRECTION ( 'NONE',  ( -0.000000000000000000, -0.000000000000000000, -1.000000000000000000 ) ) ;
#41 = DIRECTION ( 'NONE',  ( -1.000000000000000000, 0.000000000000000000, 0.000000000000000000 ) ) ;
#42 = VECTOR ( 'NONE', #12, 39.37007874015748143 ) ;
#43 = DIRECTION ( 'NONE',  ( -0.000000000000000000, -0.000000000000000000, -1.000000000000000000 ) ) ;
#44 = FILL_AREA_STYLE_COLOUR ( '', #223 ) ;
#45 = EDGE_CURVE ( 'NONE', #79, #295, #156, .T. ) ;
#46 = CARTESIAN_POINT ( 'NONE',  ( 0.2505000000000000004, 2.215815168181661933E-18, -0.1562500000000000278 ) ) ;
#47 = UNCERTAINTY_MEASURE_WITH_UNIT (LENGTH_MEASURE( 1.000000000000000082E-05 ), #143, 'distance_accuracy_value', 'NONE');
#48 = ADVANCED_FACE ( 'NONE', ( #107 ), #87, .F. ) ;
#49 = DIRECTION ( 'NONE',  ( -0.000000000000000000, 0.000000000000000000, -1.000000000000000000 ) ) ;
#50 = ADVANCED_FACE ( 'NONE', ( #134 ), #233, .T. ) ;
#51 = PLANE ( 'NONE',  #82 ) ;
#52 = APPLICATION_PROTOCOL_DEFINITION ( 'draft international standard', 'automotive_design', 1998, #242 ) ;
#53 = CIRCLE ( 'NONE', #99, 0.4375000000000000555 ) ;
#54 = VECTOR ( 'NONE', #15, 39.37007874015748143 ) ;
#55 = ORIENTED_EDGE ( 'NONE', *, *, #127, .F. ) ;
#56 = DIRECTION ( 'NONE',  ( 0.000000000000000000, 0.000000000000000000, 1.000000000000000000 ) ) ;
#57 = CIRCLE ( 'NONE', #258, 0.4375000000000000000 ) ;
#58 = ORIENTED_EDGE ( 'NONE', *, *, #92, .F. ) ;
#59 = ADVANCED_FACE ( 'NONE', ( #160 ), #122, .F. ) ;
#60 = VERTEX_POINT ( 'NONE', #211 ) ;
#61 = DIMENSIONAL_EXPONENTS ( 1.000000000000000000, 0.000000000000000000, 0.000000000000000000, 0.000000000000000000, 0.000000000000000000, 0.000000000000000000, 0.000000000000000000 ) ;
#62 = CARTESIAN_POINT ( 'NONE',  ( 0.000000000000000000, -2.846158715045953731E-17, -0.1562500000000000278 ) ) ;
#63 = CARTESIAN_POINT ( 'NONE',  ( 0.000000000000000000, -2.846158715045953731E-17, 0.09375000000000005551 ) ) ;
#64 = ORIENTED_EDGE ( 'NONE', *, *, #189, .F. ) ;
#65 = CYLINDRICAL_SURFACE ( 'NONE', #289, 0.3749999999999999445 ) ;
#66 = CARTESIAN_POINT ( 'NONE',  ( 0.000000000000000000, -2.846158715045953731E-17, -0.1562500000000000000 ) ) ;
#67 = CARTESIAN_POINT ( 'NONE',  ( 0.000000000000000000, -2.846158715045953731E-17, -0.1562500000000000833 ) ) ;
#68 = CIRCLE ( 'NONE', #123, 0.3749999999999999445 ) ;
#69 = ORIENTED_EDGE ( 'NONE', *, *, #241, .F. ) ;
#70 = AXIS2_PLACEMENT_3D ( 'NONE', #250, #37, #227 ) ;
#71 = FACE_BOUND ( 'NONE', #154, .T. ) ;
#72 =( LENGTH_UNIT ( ) NAMED_UNIT ( * ) SI_UNIT ( $, .METRE. ) );
#73 = DIRECTION ( 'NONE',  ( -0.000000000000000000, -0.000000000000000000, -1.000000000000000000 ) ) ;
#74 = FILL_AREA_STYLE ('',( #44 ) ) ;
#75 =( NAMED_UNIT ( * ) PLANE_ANGLE_UNIT ( ) SI_UNIT ( $, .RADIAN. ) );
#76 = VERTEX_POINT ( 'NONE', #235 ) ;
#77 = EDGE_CURVE ( 'NONE', #60, #288, #203, .T. ) ;
#78 = AXIS2_PLACEMENT_3D ( 'NONE', #63, #257, #260 ) ;
#79 = VERTEX_POINT ( 'NONE', #136 ) ;
#80 = VERTEX_POINT ( 'NONE', #296 ) ;
#81 = DIRECTION ( 'NONE',  ( -0.000000000000000000, -0.000000000000000000, -1.000000000000000000 ) ) ;
#82 = AXIS2_PLACEMENT_3D ( 'NONE', #141, #49, #282 ) ;
#83 = EDGE_LOOP ( 'NONE', ( #101, #102 ) ) ;
#84 = DIRECTION ( 'NONE',  ( -1.000000000000000000, 0.000000000000000000, 0.000000000000000000 ) ) ;
#85 = ORIENTED_EDGE ( 'NONE', *, *, #110, .T. ) ;
#86 = DIRECTION ( 'NONE',  ( -0.000000000000000000, -0.000000000000000000, -1.000000000000000000 ) ) ;
#87 = CYLINDRICAL_SURFACE ( 'NONE', #283, 0.2505000000000000004 ) ;
#88 = CARTESIAN_POINT ( 'NONE',  ( 0.000000000000000000, -2.846158715045953731E-17, 0.1562500000000000833 ) ) ;
#89 = CARTESIAN_POINT ( 'NONE',  ( 0.3749999999999999445, 1.746266781756620179E-17, -0.1562500000000000833 ) ) ;
#90 = PLANE ( 'NONE',  #4 ) ;
#91 = AXIS2_PLACEMENT_3D ( 'NONE', #36, #43, #38 ) ;
#92 = EDGE_CURVE ( 'NONE', #80, #76, #275, .T. ) ;
#93 = FILL_AREA_STYLE ('',( #214 ) ) ;
#94 = EDGE_LOOP ( 'NONE', ( #272, #268 ) ) ;
#95 = ADVANCED_FACE ( 'NONE', ( #294 ), #230, .T. ) ;
#96 =( LENGTH_UNIT ( ) NAMED_UNIT ( * ) SI_UNIT ( $, .METRE. ) );
#97 = PRESENTATION_LAYER_ASSIGNMENT (  '', '', ( #256 ) ) ;
#98 = ORIENTED_EDGE ( 'NONE', *, *, #183, .T. ) ;
#99 = AXIS2_PLACEMENT_3D ( 'NONE', #25, #113, #210 ) ;
#100 = CIRCLE ( 'NONE', #266, 0.2505000000000000004 ) ;
#101 = ORIENTED_EDGE ( 'NONE', *, *, #267, .F. ) ;
#102 = ORIENTED_EDGE ( 'NONE', *, *, #218, .F. ) ;
#103 = CYLINDRICAL_SURFACE ( 'NONE', #17, 0.4375000000000000555 ) ;
#104 = ORIENTED_EDGE ( 'NONE', *, *, #110, .F. ) ;
#105 = CARTESIAN_POINT ( 'NONE',  ( -0.3749999999999999445, -2.846158715045953731E-17, -0.1562500000000000000 ) ) ;
#106 = EDGE_CURVE ( 'NONE', #295, #288, #161, .T. ) ;
#107 = FACE_OUTER_BOUND ( 'NONE', #229, .T. ) ;
#108 = LINE ( 'NONE', #279, #277 ) ;
#109 = DIRECTION ( 'NONE',  ( -1.000000000000000000, 0.000000000000000000, 0.000000000000000000 ) ) ;
#110 = EDGE_CURVE ( 'NONE', #60, #79, #280, .T. ) ;
#111 = DIRECTION ( 'NONE',  ( -0.000000000000000000, -0.000000000000000000, -1.000000000000000000 ) ) ;
#112 = CARTESIAN_POINT ( 'NONE',  ( 0.000000000000000000, -2.846158715045953731E-17, 0.09375000000000005551 ) ) ;
#113 = DIRECTION ( 'NONE',  ( -0.000000000000000000, -0.000000000000000000, -1.000000000000000000 ) ) ;
#114 = DIRECTION ( 'NONE',  ( -0.000000000000000000, -0.000000000000000000, -1.000000000000000000 ) ) ;
#115 = CARTESIAN_POINT ( 'NONE',  ( 0.000000000000000000, -2.846158715045953731E-17, 0.09375000000000005551 ) ) ;
#116 = AXIS2_PLACEMENT_3D ( 'NONE', #28, #56, #193 ) ;
#117 = FACE_OUTER_BOUND ( 'NONE', #94, .T. ) ;
#118 = PRODUCT_DEFINITION ( 'UNKNOWN', '', #6, #238 ) ;
#119 = MECHANICAL_DESIGN_GEOMETRIC_PRESENTATION_REPRESENTATION (  '', ( #256 ), #303 ) ;
#120 = ADVANCED_BREP_SHAPE_REPRESENTATION ( 'WCP-0998 Rev1', ( #301, #116 ), #245 ) ;
#121 =( NAMED_UNIT ( * ) SI_UNIT ( $, .STERADIAN. ) SOLID_ANGLE_UNIT ( ) );
#122 = CYLINDRICAL_SURFACE ( 'NONE', #186, 0.2505000000000000004 ) ;
#123 = AXIS2_PLACEMENT_3D ( 'NONE', #281, #163, #125 ) ;
#124 = VERTEX_POINT ( 'NONE', #20 ) ;
#125 = DIRECTION ( 'NONE',  ( -1.000000000000000000, 0.000000000000000000, 0.000000000000000000 ) ) ;
#126 = ORIENTED_EDGE ( 'NONE', *, *, #45, .T. ) ;
#127 = EDGE_CURVE ( 'NONE', #148, #124, #177, .T. ) ;
#128 = DIRECTION ( 'NONE',  ( -1.000000000000000000, 0.000000000000000000, 0.000000000000000000 ) ) ;
#129 = CARTESIAN_POINT ( 'NONE',  ( 0.3749999999999999445, 1.746266781756620179E-17, -0.1562500000000000000 ) ) ;
#130 = APPLICATION_CONTEXT ( 'automotive_design' ) ;
#131 = DIRECTION ( 'NONE',  ( -1.000000000000000000, 0.000000000000000000, 0.000000000000000000 ) ) ;
#132 = EDGE_CURVE ( 'NONE', #124, #248, #216, .T. ) ;
#133 = PRESENTATION_LAYER_ASSIGNMENT (  '', '', ( #270 ) ) ;
#134 = FACE_OUTER_BOUND ( 'NONE', #35, .T. ) ;
#135 = AXIS2_PLACEMENT_3D ( 'NONE', #88, #184, #278 ) ;
#136 = CARTESIAN_POINT ( 'NONE',  ( 0.3749999999999999445, 1.746266781756620179E-17, 0.09375000000000005551 ) ) ;
#137 = PRODUCT_RELATED_PRODUCT_CATEGORY ( 'part', '', ( #206 ) ) ;
#138 = DIRECTION ( 'NONE',  ( -1.000000000000000000, 0.000000000000000000, 0.000000000000000000 ) ) ;
#139 = CARTESIAN_POINT ( 'NONE',  ( -0.4375000000000000555, -2.846158715045953731E-17, -0.1562500000000000000 ) ) ;
#140 =( CONVERSION_BASED_UNIT ( 'INCH', #237 ) LENGTH_UNIT ( ) NAMED_UNIT ( #61 ) );
#141 = CARTESIAN_POINT ( 'NONE',  ( 0.000000000000000000, 0.4375000000000000000, 0.09375000000000005551 ) ) ;
#142 = PRESENTATION_STYLE_ASSIGNMENT (( #299 ) ) ;
#143 =( CONVERSION_BASED_UNIT ( 'INCH', #147 ) LENGTH_UNIT ( ) NAMED_UNIT ( #173 ) );
#144 = CIRCLE ( 'NONE', #8, 0.2505000000000000004 ) ;
#145 = AXIS2_PLACEMENT_3D ( 'NONE', #67, #18, #14 ) ;
#146 = EDGE_CURVE ( 'NONE', #248, #124, #57, .T. ) ;
#147 = LENGTH_MEASURE_WITH_UNIT ( LENGTH_MEASURE( 0.02539999999999999897 ), #96 );
#148 = VERTEX_POINT ( 'NONE', #271 ) ;
#149 = EDGE_LOOP ( 'NONE', ( #286, #259 ) ) ;
#150 = ADVANCED_FACE ( 'NONE', ( #213 ), #103, .T. ) ;
#151 = VERTEX_POINT ( 'NONE', #209 ) ;
#152 = PLANE ( 'NONE',  #284 ) ;
#153 = CARTESIAN_POINT ( 'NONE',  ( -0.2505000000000000004, -2.846158715045953731E-17, -0.1562500000000000000 ) ) ;
#154 = EDGE_LOOP ( 'NONE', ( #199, #200 ) ) ;
#155 = CARTESIAN_POINT ( 'NONE',  ( 0.000000000000000000, -2.846158715045953731E-17, -0.1562500000000000000 ) ) ;
#156 = LINE ( 'NONE', #129, #54 ) ;
#157 = DIRECTION ( 'NONE',  ( -0.000000000000000000, -0.000000000000000000, -1.000000000000000000 ) ) ;
#158 =( LENGTH_UNIT ( ) NAMED_UNIT ( * ) SI_UNIT ( $, .METRE. ) );
#159 = CIRCLE ( 'NONE', #29, 0.2505000000000000004 ) ;
#160 = FACE_OUTER_BOUND ( 'NONE', #34, .T. ) ;
#161 = CIRCLE ( 'NONE', #145, 0.3749999999999999445 ) ;
#162 = DIRECTION ( 'NONE',  ( 0.000000000000000000, 0.000000000000000000, 1.000000000000000000 ) ) ;
#163 = DIRECTION ( 'NONE',  ( -0.000000000000000000, -0.000000000000000000, -1.000000000000000000 ) ) ;
#164 = CARTESIAN_POINT ( 'NONE',  ( 0.000000000000000000, -2.846158715045953731E-17, 0.1562500000000000000 ) ) ;
#165 = SURFACE_SIDE_STYLE ('',( #2 ) ) ;
#166 = DIRECTION ( 'NONE',  ( -1.000000000000000000, 0.000000000000000000, 0.000000000000000000 ) ) ;
#167 = PRODUCT_CONTEXT ( 'NONE', #242, 'mechanical' ) ;
#168 = PRESENTATION_STYLE_ASSIGNMENT (( #285 ) ) ;
#169 = APPLICATION_PROTOCOL_DEFINITION ( 'draft international standard', 'automotive_design', 1998, #130 ) ;
#170 = ORIENTED_EDGE ( 'NONE', *, *, #132, .F. ) ;
#171 =( NAMED_UNIT ( * ) SI_UNIT ( $, .STERADIAN. ) SOLID_ANGLE_UNIT ( ) );
#172 = VERTEX_POINT ( 'NONE', #46 ) ;
#173 = DIMENSIONAL_EXPONENTS ( 1.000000000000000000, 0.000000000000000000, 0.000000000000000000, 0.000000000000000000, 0.000000000000000000, 0.000000000000000000, 0.000000000000000000 ) ;
#174 = AXIS2_PLACEMENT_3D ( 'NONE', #251, #225, #201 ) ;
#175 = EDGE_LOOP ( 'NONE', ( #85, #126, #246, #297 ) ) ;
#176 = ORIENTED_EDGE ( 'NONE', *, *, #77, .T. ) ;
#177 = LINE ( 'NONE', #179, #42 ) ;
#178 = CARTESIAN_POINT ( 'NONE',  ( 0.000000000000000000, 0.3749999999999999445, -0.1562500000000000833 ) ) ;
#179 = CARTESIAN_POINT ( 'NONE',  ( 0.4375000000000000555, 2.511671031223717321E-17, -0.1562500000000000000 ) ) ;
#180 = VERTEX_POINT ( 'NONE', #205 ) ;
#181 = FACE_OUTER_BOUND ( 'NONE', #83, .T. ) ;
#182 = ORIENTED_EDGE ( 'NONE', *, *, #127, .T. ) ;
#183 = EDGE_CURVE ( 'NONE', #180, #248, #228, .T. ) ;
#184 = DIRECTION ( 'NONE',  ( -0.000000000000000000, -0.000000000000000000, -1.000000000000000000 ) ) ;
#185 = DIRECTION ( 'NONE',  ( -0.000000000000000000, -0.000000000000000000, -1.000000000000000000 ) ) ;
#186 = AXIS2_PLACEMENT_3D ( 'NONE', #22, #114, #138 ) ;
#187 = CARTESIAN_POINT ( 'NONE',  ( 0.000000000000000000, 0.2504999999999999449, 0.1562500000000000833 ) ) ;
#188 = CARTESIAN_POINT ( 'NONE',  ( -0.3749999999999999445, -2.846158715045953731E-17, -0.1562500000000000833 ) ) ;
#189 = EDGE_CURVE ( 'NONE', #151, #80, #232, .T. ) ;
#190 = VECTOR ( 'NONE', #234, 39.37007874015748143 ) ;
#191 = SURFACE_STYLE_FILL_AREA ( #93 ) ;
#192 = EDGE_LOOP ( 'NONE', ( #265, #9 ) ) ;
#193 = DIRECTION ( 'NONE',  ( 1.000000000000000000, 0.000000000000000000, 0.000000000000000000 ) ) ;
#194 = ORIENTED_EDGE ( 'NONE', *, *, #218, .T. ) ;
#195 = ORIENTED_EDGE ( 'NONE', *, *, #244, .F. ) ;
#196 = COLOUR_RGB ( '',0.6196078431372549211, 0.4078431372549019551, 0.2000000000000000111 ) ;
#197 = AXIS2_PLACEMENT_3D ( 'NONE', #19, #207, #276 ) ;
#198 = AXIS2_PLACEMENT_3D ( 'NONE', #115, #73, #128 ) ;
#199 = ORIENTED_EDGE ( 'NONE', *, *, #290, .T. ) ;
#200 = ORIENTED_EDGE ( 'NONE', *, *, #189, .T. ) ;
#201 = DIRECTION ( 'NONE',  ( -1.000000000000000000, 0.000000000000000000, 0.000000000000000000 ) ) ;
#202 = FACE_OUTER_BOUND ( 'NONE', #149, .T. ) ;
#203 = LINE ( 'NONE', #105, #16 ) ;
#204 = ORIENTED_EDGE ( 'NONE', *, *, #5, .T. ) ;
#205 = CARTESIAN_POINT ( 'NONE',  ( -0.4375000000000000555, -2.846158715045953731E-17, 0.1562500000000000833 ) ) ;
#206 = PRODUCT ( 'WCP-0998 Rev1', 'WCP-0998 Rev1', '', ( #167 ) ) ;
#207 = DIRECTION ( 'NONE',  ( -0.000000000000000000, -0.000000000000000000, -1.000000000000000000 ) ) ;
#208 = ADVANCED_FACE ( 'NONE', ( #1 ), #65, .T. ) ;
#209 = CARTESIAN_POINT ( 'NONE',  ( 0.2505000000000000004, 2.215815168181661933E-18, 0.1562500000000000000 ) ) ;
#210 = DIRECTION ( 'NONE',  ( -1.000000000000000000, 0.000000000000000000, 0.000000000000000000 ) ) ;
#211 = CARTESIAN_POINT ( 'NONE',  ( -0.3749999999999999445, -2.846158715045953731E-17, 0.09375000000000005551 ) ) ;
#212 = EDGE_CURVE ( 'NONE', #172, #76, #100, .T. ) ;
#213 = FACE_OUTER_BOUND ( 'NONE', #293, .T. ) ;
#214 = FILL_AREA_STYLE_COLOUR ( '', #196 ) ;
#215 =( NAMED_UNIT ( * ) SI_UNIT ( $, .STERADIAN. ) SOLID_ANGLE_UNIT ( ) );
#216 = CIRCLE ( 'NONE', #78, 0.4375000000000000000 ) ;
#217 =( NAMED_UNIT ( * ) PLANE_ANGLE_UNIT ( ) SI_UNIT ( $, .RADIAN. ) );
#218 = EDGE_CURVE ( 'NONE', #148, #180, #30, .T. ) ;
#219 = UNCERTAINTY_MEASURE_WITH_UNIT (LENGTH_MEASURE( 1.000000000000000082E-05 ), #140, 'distance_accuracy_value', 'NONE');
#220 = ADVANCED_FACE ( 'NONE', ( #71, #181 ), #90, .T. ) ;
#221 = ORIENTED_EDGE ( 'NONE', *, *, #92, .T. ) ;
#222 = ORIENTED_EDGE ( 'NONE', *, *, #267, .T. ) ;
#223 = COLOUR_RGB ( '',0.6196078431372549211, 0.4078431372549019551, 0.2000000000000000111 ) ;
#224 = ORIENTED_EDGE ( 'NONE', *, *, #146, .F. ) ;
#225 = DIRECTION ( 'NONE',  ( -0.000000000000000000, -0.000000000000000000, -1.000000000000000000 ) ) ;
#226 = DIMENSIONAL_EXPONENTS ( 1.000000000000000000, 0.000000000000000000, 0.000000000000000000, 0.000000000000000000, 0.000000000000000000, 0.000000000000000000, 0.000000000000000000 ) ;
#227 = DIRECTION ( 'NONE',  ( -1.000000000000000000, 0.000000000000000000, 0.000000000000000000 ) ) ;
#228 = LINE ( 'NONE', #139, #240 ) ;
#229 = EDGE_LOOP ( 'NONE', ( #195, #13, #221, #204 ) ) ;
#230 = CYLINDRICAL_SURFACE ( 'NONE', #174, 0.3749999999999999445 ) ;
#231 = CIRCLE ( 'NONE', #70, 0.3749999999999999445 ) ;
#232 = CIRCLE ( 'NONE', #91, 0.2505000000000000004 ) ;
#233 = CYLINDRICAL_SURFACE ( 'NONE', #197, 0.4375000000000000555 ) ;
#234 = DIRECTION ( 'NONE',  ( -0.000000000000000000, -0.000000000000000000, -1.000000000000000000 ) ) ;
#235 = CARTESIAN_POINT ( 'NONE',  ( -0.2505000000000000004, -2.846158715045953731E-17, -0.1562500000000000278 ) ) ;
#236 = DIRECTION ( 'NONE',  ( 1.000000000000000000, 0.000000000000000000, -0.000000000000000000 ) ) ;
#237 = LENGTH_MEASURE_WITH_UNIT ( LENGTH_MEASURE( 0.02539999999999999897 ), #72 );
#238 = PRODUCT_DEFINITION_CONTEXT ( 'detailed design', #130, 'design' ) ;
#239 = SURFACE_SIDE_STYLE ('',( #191 ) ) ;
#240 = VECTOR ( 'NONE', #273, 39.37007874015748143 ) ;
#241 = EDGE_CURVE ( 'NONE', #79, #60, #68, .T. ) ;
#242 = APPLICATION_CONTEXT ( 'automotive_design' ) ;
#243 = LENGTH_MEASURE_WITH_UNIT ( LENGTH_MEASURE( 0.02539999999999999897 ), #158 );
#244 = EDGE_CURVE ( 'NONE', #151, #172, #108, .T. ) ;
#245 =( GEOMETRIC_REPRESENTATION_CONTEXT ( 3 ) GLOBAL_UNCERTAINTY_ASSIGNED_CONTEXT ( ( #261 ) ) GLOBAL_UNIT_ASSIGNED_CONTEXT ( ( #287, #217, #121 ) ) REPRESENTATION_CONTEXT ( 'NONE', 'WORKASPACE' ) );
#246 = ORIENTED_EDGE ( 'NONE', *, *, #33, .F. ) ;
#247 = ORIENTED_EDGE ( 'NONE', *, *, #241, .T. ) ;
#248 = VERTEX_POINT ( 'NONE', #21 ) ;
#249 = DIRECTION ( 'NONE',  ( -1.000000000000000000, 0.000000000000000000, 0.000000000000000000 ) ) ;
#250 = CARTESIAN_POINT ( 'NONE',  ( 0.000000000000000000, -2.846158715045953731E-17, -0.1562500000000000833 ) ) ;
#251 = CARTESIAN_POINT ( 'NONE',  ( 0.000000000000000000, -2.846158715045953731E-17, -0.1562500000000000000 ) ) ;
#252 = FACE_BOUND ( 'NONE', #192, .T. ) ;
#253 = CARTESIAN_POINT ( 'NONE',  ( 0.000000000000000000, -2.846158715045953731E-17, -0.1562500000000000000 ) ) ;
#254 = PRODUCT_DEFINITION_SHAPE ( 'NONE', 'NONE',  #118 ) ;
#255 = DIRECTION ( 'NONE',  ( -0.000000000000000000, -0.000000000000000000, -1.000000000000000000 ) ) ;
#256 = STYLED_ITEM ( 'NONE', ( #142 ), #301 ) ;
#257 = DIRECTION ( 'NONE',  ( -0.000000000000000000, -0.000000000000000000, -1.000000000000000000 ) ) ;
#258 = AXIS2_PLACEMENT_3D ( 'NONE', #112, #157, #109 ) ;
#259 = ORIENTED_EDGE ( 'NONE', *, *, #106, .T. ) ;
#260 = DIRECTION ( 'NONE',  ( -1.000000000000000000, 0.000000000000000000, 0.000000000000000000 ) ) ;
#261 = UNCERTAINTY_MEASURE_WITH_UNIT (LENGTH_MEASURE( 1.000000000000000082E-05 ), #287, 'distance_accuracy_value', 'NONE');
#262 = DIRECTION ( 'NONE',  ( -0.000000000000000000, -0.000000000000000000, -1.000000000000000000 ) ) ;
#263 = MECHANICAL_DESIGN_GEOMETRIC_PRESENTATION_REPRESENTATION (  '', ( #270 ), #3 ) ;
#264 = EDGE_LOOP ( 'NONE', ( #291, #247, #176, #32 ) ) ;
#265 = ORIENTED_EDGE ( 'NONE', *, *, #5, .F. ) ;
#266 = AXIS2_PLACEMENT_3D ( 'NONE', #298, #86, #302 ) ;
#267 = EDGE_CURVE ( 'NONE', #180, #148, #53, .T. ) ;
#268 = ORIENTED_EDGE ( 'NONE', *, *, #132, .T. ) ;
#269 = ORIENTED_EDGE ( 'NONE', *, *, #244, .T. ) ;
#270 = STYLED_ITEM ( 'NONE', ( #168 ), #120 ) ;
#271 = CARTESIAN_POINT ( 'NONE',  ( 0.4375000000000000555, 2.511671031223717321E-17, 0.1562500000000000833 ) ) ;
#272 = ORIENTED_EDGE ( 'NONE', *, *, #146, .T. ) ;
#273 = DIRECTION ( 'NONE',  ( -0.000000000000000000, -0.000000000000000000, -1.000000000000000000 ) ) ;
#274 = ORIENTED_EDGE ( 'NONE', *, *, #212, .T. ) ;
#275 = LINE ( 'NONE', #153, #190 ) ;
#276 = DIRECTION ( 'NONE',  ( -1.000000000000000000, 0.000000000000000000, 0.000000000000000000 ) ) ;
#277 = VECTOR ( 'NONE', #185, 39.37007874015748143 ) ;
#278 = DIRECTION ( 'NONE',  ( -1.000000000000000000, 0.000000000000000000, 0.000000000000000000 ) ) ;
#279 = CARTESIAN_POINT ( 'NONE',  ( 0.2505000000000000004, 2.215815168181661933E-18, -0.1562500000000000000 ) ) ;
#280 = CIRCLE ( 'NONE', #198, 0.3749999999999999445 ) ;
#281 = CARTESIAN_POINT ( 'NONE',  ( 0.000000000000000000, -2.846158715045953731E-17, 0.09375000000000005551 ) ) ;
#282 = DIRECTION ( 'NONE',  ( -1.000000000000000000, 0.000000000000000000, 0.000000000000000000 ) ) ;
#283 = AXIS2_PLACEMENT_3D ( 'NONE', #66, #255, #41 ) ;
#284 = AXIS2_PLACEMENT_3D ( 'NONE', #178, #11, #39 ) ;
#285 = SURFACE_STYLE_USAGE ( .BOTH. , #239 ) ;
#286 = ORIENTED_EDGE ( 'NONE', *, *, #33, .T. ) ;
#287 =( CONVERSION_BASED_UNIT ( 'INCH', #243 ) LENGTH_UNIT ( ) NAMED_UNIT ( #226 ) );
#288 = VERTEX_POINT ( 'NONE', #188 ) ;
#289 = AXIS2_PLACEMENT_3D ( 'NONE', #155, #40, #131 ) ;
#290 = EDGE_CURVE ( 'NONE', #80, #151, #144, .T. ) ;
#291 = ORIENTED_EDGE ( 'NONE', *, *, #45, .F. ) ;
#292 = ADVANCED_FACE ( 'NONE', ( #117, #24 ), #51, .T. ) ;
#293 = EDGE_LOOP ( 'NONE', ( #55, #194, #98, #170 ) ) ;
#294 = FACE_OUTER_BOUND ( 'NONE', #175, .T. ) ;
#295 = VERTEX_POINT ( 'NONE', #89 ) ;
#296 = CARTESIAN_POINT ( 'NONE',  ( -0.2505000000000000004, -2.846158715045953731E-17, 0.1562500000000000000 ) ) ;
#297 = ORIENTED_EDGE ( 'NONE', *, *, #77, .F. ) ;
#298 = CARTESIAN_POINT ( 'NONE',  ( 0.000000000000000000, -2.846158715045953731E-17, -0.1562500000000000278 ) ) ;
#299 = SURFACE_STYLE_USAGE ( .BOTH. , #165 ) ;
#300 = EDGE_LOOP ( 'NONE', ( #104, #69 ) ) ;
#301 = MANIFOLD_SOLID_BREP ( 'Revolve1', #10 ) ;
#302 = DIRECTION ( 'NONE',  ( -1.000000000000000000, 0.000000000000000000, 0.000000000000000000 ) ) ;
#303 =( GEOMETRIC_REPRESENTATION_CONTEXT ( 3 ) GLOBAL_UNCERTAINTY_ASSIGNED_CONTEXT ( ( #219 ) ) GLOBAL_UNIT_ASSIGNED_CONTEXT ( ( #140, #26, #215 ) ) REPRESENTATION_CONTEXT ( 'NONE', 'WORKASPACE' ) );
ENDSEC;
END-ISO-10303-21;
