ISO-10303-21;
HEADER;
FILE_DESCRIPTION (( 'STEP AP214' ),
    '1' );
FILE_NAME ('WCP-0997 Rev1.step',
    '2023-12-22T21:48:18',
    ( '' ),
    ( '' ),
    'SwSTEP 2.0',
    'SolidWorks 2022',
    '' );
FILE_SCHEMA (( 'AUTOMOTIVE_DESIGN' ));
ENDSEC;

DATA;
#1 = EDGE_LOOP ( 'NONE', ( #282, #289 ) ) ;
#2 = CARTESIAN_POINT ( 'NONE',  ( 0.000000000000000000, -2.846158715045953731E-17, 0.09375000000000005551 ) ) ;
#3 = PRESENTATION_STYLE_ASSIGNMENT (( #212 ) ) ;
#4 = EDGE_CURVE ( 'NONE', #235, #5, #9, .T. ) ;
#5 = VERTEX_POINT ( 'NONE', #242 ) ;
#6 = DIRECTION ( 'NONE',  ( -1.000000000000000000, 0.000000000000000000, 0.000000000000000000 ) ) ;
#7 = CIRCLE ( 'NONE', #293, 0.3749999999999999445 ) ;
#8 = DIRECTION ( 'NONE',  ( -1.000000000000000000, 0.000000000000000000, 0.000000000000000000 ) ) ;
#9 = LINE ( 'NONE', #174, #20 ) ;
#10 = FACE_BOUND ( 'NONE', #158, .T. ) ;
#11 = CIRCLE ( 'NONE', #219, 0.2022716535433070895 ) ;
#12 = DIRECTION ( 'NONE',  ( -0.000000000000000000, -0.000000000000000000, -1.000000000000000000 ) ) ;
#13 = DIRECTION ( 'NONE',  ( -0.000000000000000000, 0.000000000000000000, -1.000000000000000000 ) ) ;
#14 = DIRECTION ( 'NONE',  ( -0.000000000000000000, -0.000000000000000000, -1.000000000000000000 ) ) ;
#15 = EDGE_CURVE ( 'NONE', #146, #260, #176, .T. ) ;
#16 = LENGTH_MEASURE_WITH_UNIT ( LENGTH_MEASURE( 0.02539999999999999897 ), #138 );
#17 = DIMENSIONAL_EXPONENTS ( 1.000000000000000000, 0.000000000000000000, 0.000000000000000000, 0.000000000000000000, 0.000000000000000000, 0.000000000000000000, 0.000000000000000000 ) ;
#18 = LINE ( 'NONE', #87, #275 ) ;
#19 =( GEOMETRIC_REPRESENTATION_CONTEXT ( 3 ) GLOBAL_UNCERTAINTY_ASSIGNED_CONTEXT ( ( #131 ) ) GLOBAL_UNIT_ASSIGNED_CONTEXT ( ( #144, #236, #164 ) ) REPRESENTATION_CONTEXT ( 'NONE', 'WORKASPACE' ) );
#20 = VECTOR ( 'NONE', #81, 39.37007874015748143 ) ;
#21 = AXIS2_PLACEMENT_3D ( 'NONE', #61, #168, #298 ) ;
#22 = ORIENTED_EDGE ( 'NONE', *, *, #300, .T. ) ;
#23 = CARTESIAN_POINT ( 'NONE',  ( 0.2022716535433070895, -3.690453843454191679E-18, -0.1562500000000000278 ) ) ;
#24 = CARTESIAN_POINT ( 'NONE',  ( 0.000000000000000000, -2.846158715045953731E-17, -0.1562500000000000000 ) ) ;
#25 = CARTESIAN_POINT ( 'NONE',  ( -0.2022716535433070895, -2.846158715045953731E-17, 0.1562500000000000000 ) ) ;
#26 = SURFACE_SIDE_STYLE ('',( #253 ) ) ;
#27 = ADVANCED_FACE ( 'NONE', ( #132, #10 ), #103, .T. ) ;
#28 =( LENGTH_UNIT ( ) NAMED_UNIT ( * ) SI_UNIT ( $, .METRE. ) );
#29 = CARTESIAN_POINT ( 'NONE',  ( 0.000000000000000000, -2.846158715045953731E-17, 0.1562500000000000000 ) ) ;
#30 = STYLED_ITEM ( 'NONE', ( #3 ), #259 ) ;
#31 = LINE ( 'NONE', #271, #37 ) ;
#32 = AXIS2_PLACEMENT_3D ( 'NONE', #24, #297, #41 ) ;
#33 = VERTEX_POINT ( 'NONE', #152 ) ;
#34 = CYLINDRICAL_SURFACE ( 'NONE', #299, 0.2022716535433070895 ) ;
#35 = SHAPE_DEFINITION_REPRESENTATION ( #46, #259 ) ;
#36 = DIRECTION ( 'NONE',  ( -1.000000000000000000, 0.000000000000000000, 0.000000000000000000 ) ) ;
#37 = VECTOR ( 'NONE', #43, 39.37007874015748143 ) ;
#38 = CYLINDRICAL_SURFACE ( 'NONE', #32, 0.3124999999999999445 ) ;
#39 = PRODUCT_DEFINITION_CONTEXT ( 'detailed design', #157, 'design' ) ;
#40 = LINE ( 'NONE', #247, #267 ) ;
#41 = DIRECTION ( 'NONE',  ( -1.000000000000000000, 0.000000000000000000, 0.000000000000000000 ) ) ;
#42 = DIMENSIONAL_EXPONENTS ( 1.000000000000000000, 0.000000000000000000, 0.000000000000000000, 0.000000000000000000, 0.000000000000000000, 0.000000000000000000, 0.000000000000000000 ) ;
#43 = DIRECTION ( 'NONE',  ( -0.000000000000000000, -0.000000000000000000, -1.000000000000000000 ) ) ;
#44 = ADVANCED_FACE ( 'NONE', ( #126 ), #34, .F. ) ;
#45 = PLANE ( 'NONE',  #251 ) ;
#46 = PRODUCT_DEFINITION_SHAPE ( 'NONE', 'NONE',  #78 ) ;
#47 = DIRECTION ( 'NONE',  ( -1.000000000000000000, 0.000000000000000000, 0.000000000000000000 ) ) ;
#48 = AXIS2_PLACEMENT_3D ( 'NONE', #166, #125, #252 ) ;
#49 = STYLED_ITEM ( 'NONE', ( #84 ), #150 ) ;
#50 = EDGE_LOOP ( 'NONE', ( #151, #288, #258, #97 ) ) ;
#51 = DIRECTION ( 'NONE',  ( -0.000000000000000000, -0.000000000000000000, -1.000000000000000000 ) ) ;
#52 = DIRECTION ( 'NONE',  ( -1.000000000000000000, 0.000000000000000000, 0.000000000000000000 ) ) ;
#53 = ORIENTED_EDGE ( 'NONE', *, *, #216, .F. ) ;
#54 = ORIENTED_EDGE ( 'NONE', *, *, #82, .T. ) ;
#55 = APPLICATION_PROTOCOL_DEFINITION ( 'draft international standard', 'automotive_design', 1998, #157 ) ;
#56 = EDGE_LOOP ( 'NONE', ( #192, #54 ) ) ;
#57 = ORIENTED_EDGE ( 'NONE', *, *, #92, .T. ) ;
#58 = CARTESIAN_POINT ( 'NONE',  ( 0.2022716535433070895, -3.690453843454191679E-18, 0.1562500000000000000 ) ) ;
#59 = COLOUR_RGB ( '',0.6196078431372549211, 0.4078431372549019551, 0.2000000000000000111 ) ;
#60 = CARTESIAN_POINT ( 'NONE',  ( 0.000000000000000000, -2.846158715045953731E-17, -0.1562500000000000833 ) ) ;
#61 = CARTESIAN_POINT ( 'NONE',  ( 0.000000000000000000, -2.846158715045953731E-17, -0.1562500000000000000 ) ) ;
#62 = VECTOR ( 'NONE', #12, 39.37007874015748143 ) ;
#63 = DIRECTION ( 'NONE',  ( -0.000000000000000000, -0.000000000000000000, -1.000000000000000000 ) ) ;
#64 = ORIENTED_EDGE ( 'NONE', *, *, #248, .F. ) ;
#65 = PRODUCT_DEFINITION_FORMATION_WITH_SPECIFIED_SOURCE ( 'ANY', '', #89, .NOT_KNOWN. ) ;
#66 = CIRCLE ( 'NONE', #48, 0.3749999999999998890 ) ;
#67 = EDGE_CURVE ( 'NONE', #182, #33, #195, .T. ) ;
#68 = ORIENTED_EDGE ( 'NONE', *, *, #265, .T. ) ;
#69 = FILL_AREA_STYLE_COLOUR ( '', #59 ) ;
#70 = EDGE_LOOP ( 'NONE', ( #68, #121 ) ) ;
#71 =( LENGTH_UNIT ( ) NAMED_UNIT ( * ) SI_UNIT ( $, .METRE. ) );
#72 = VERTEX_POINT ( 'NONE', #77 ) ;
#73 = CARTESIAN_POINT ( 'NONE',  ( 0.000000000000000000, 0.2022716535433070617, 0.1562500000000000833 ) ) ;
#74 = DIRECTION ( 'NONE',  ( -1.000000000000000000, 0.000000000000000000, 0.000000000000000000 ) ) ;
#75 = VERTEX_POINT ( 'NONE', #58 ) ;
#76 = AXIS2_PLACEMENT_3D ( 'NONE', #101, #173, #79 ) ;
#77 = CARTESIAN_POINT ( 'NONE',  ( 0.3124999999999999445, 9.808625322895244249E-18, -0.1562500000000000833 ) ) ;
#78 = PRODUCT_DEFINITION ( 'UNKNOWN', '', #65, #39 ) ;
#79 = DIRECTION ( 'NONE',  ( 1.000000000000000000, 0.000000000000000000, 0.000000000000000000 ) ) ;
#80 = DIRECTION ( 'NONE',  ( -0.000000000000000000, 0.000000000000000000, -1.000000000000000000 ) ) ;
#81 = DIRECTION ( 'NONE',  ( -0.000000000000000000, -0.000000000000000000, -1.000000000000000000 ) ) ;
#82 = EDGE_CURVE ( 'NONE', #33, #5, #7, .T. ) ;
#83 = CIRCLE ( 'NONE', #250, 0.3124999999999999445 ) ;
#84 = PRESENTATION_STYLE_ASSIGNMENT (( #230 ) ) ;
#85 = AXIS2_PLACEMENT_3D ( 'NONE', #291, #63, #277 ) ;
#86 = FACE_OUTER_BOUND ( 'NONE', #143, .T. ) ;
#87 = CARTESIAN_POINT ( 'NONE',  ( 0.2022716535433070895, -3.690453843454191679E-18, -0.1562500000000000000 ) ) ;
#88 = PRESENTATION_LAYER_ASSIGNMENT (  '', '', ( #30 ) ) ;
#89 = PRODUCT ( 'WCP-0997 Rev1', 'WCP-0997 Rev1', '', ( #180 ) ) ;
#90 = DIRECTION ( 'NONE',  ( -0.000000000000000000, -0.000000000000000000, -1.000000000000000000 ) ) ;
#91 = ORIENTED_EDGE ( 'NONE', *, *, #234, .F. ) ;
#92 = EDGE_CURVE ( 'NONE', #182, #235, #183, .T. ) ;
#93 = ORIENTED_EDGE ( 'NONE', *, *, #179, .F. ) ;
#94 = CIRCLE ( 'NONE', #292, 0.3749999999999999445 ) ;
#95 = LENGTH_MEASURE_WITH_UNIT ( LENGTH_MEASURE( 0.02539999999999999897 ), #71 );
#96 = FACE_OUTER_BOUND ( 'NONE', #222, .T. ) ;
#97 = ORIENTED_EDGE ( 'NONE', *, *, #300, .F. ) ;
#98 = DIRECTION ( 'NONE',  ( -0.000000000000000000, -0.000000000000000000, -1.000000000000000000 ) ) ;
#99 = CARTESIAN_POINT ( 'NONE',  ( -0.2022716535433070895, -2.846158715045953731E-17, -0.1562500000000000278 ) ) ;
#100 = ORIENTED_EDGE ( 'NONE', *, *, #4, .T. ) ;
#101 = CARTESIAN_POINT ( 'NONE',  ( 0.000000000000000000, 0.000000000000000000, 0.000000000000000000 ) ) ;
#102 = CIRCLE ( 'NONE', #85, 0.2022716535433070895 ) ;
#103 = PLANE ( 'NONE',  #287 ) ;
#104 = ORIENTED_EDGE ( 'NONE', *, *, #163, .F. ) ;
#105 = ADVANCED_FACE ( 'NONE', ( #110 ), #156, .T. ) ;
#106 = DIRECTION ( 'NONE',  ( -1.000000000000000000, 0.000000000000000000, 0.000000000000000000 ) ) ;
#107 = CIRCLE ( 'NONE', #261, 0.2022716535433070895 ) ;
#108 = CARTESIAN_POINT ( 'NONE',  ( 0.000000000000000000, 0.3124999999999999445, -0.1562500000000000833 ) ) ;
#109 = CLOSED_SHELL ( 'NONE', ( #105, #240, #133, #27, #44, #210, #200, #171, #140 ) ) ;
#110 = FACE_OUTER_BOUND ( 'NONE', #50, .T. ) ;
#111 = CARTESIAN_POINT ( 'NONE',  ( -0.3124999999999999445, -2.846158715045953731E-17, 0.09375000000000005551 ) ) ;
#112 = MECHANICAL_DESIGN_GEOMETRIC_PRESENTATION_REPRESENTATION (  '', ( #30 ), #273 ) ;
#113 =( GEOMETRIC_REPRESENTATION_CONTEXT ( 3 ) GLOBAL_UNCERTAINTY_ASSIGNED_CONTEXT ( ( #198 ) ) GLOBAL_UNIT_ASSIGNED_CONTEXT ( ( #120, #114, #228 ) ) REPRESENTATION_CONTEXT ( 'NONE', 'WORKASPACE' ) );
#114 =( NAMED_UNIT ( * ) PLANE_ANGLE_UNIT ( ) SI_UNIT ( $, .RADIAN. ) );
#115 = DIRECTION ( 'NONE',  ( -1.000000000000000000, 0.000000000000000000, 0.000000000000000000 ) ) ;
#116 = FACE_OUTER_BOUND ( 'NONE', #263, .T. ) ;
#117 = DIRECTION ( 'NONE',  ( -0.000000000000000000, -0.000000000000000000, -1.000000000000000000 ) ) ;
#118 = VERTEX_POINT ( 'NONE', #238 ) ;
#119 = FILL_AREA_STYLE ('',( #167 ) ) ;
#120 =( CONVERSION_BASED_UNIT ( 'INCH', #16 ) LENGTH_UNIT ( ) NAMED_UNIT ( #17 ) );
#121 = ORIENTED_EDGE ( 'NONE', *, *, #248, .T. ) ;
#122 = DIRECTION ( 'NONE',  ( -0.000000000000000000, -0.000000000000000000, -1.000000000000000000 ) ) ;
#123 = AXIS2_PLACEMENT_3D ( 'NONE', #155, #128, #36 ) ;
#124 = ORIENTED_EDGE ( 'NONE', *, *, #296, .T. ) ;
#125 = DIRECTION ( 'NONE',  ( -0.000000000000000000, -0.000000000000000000, -1.000000000000000000 ) ) ;
#126 = FACE_OUTER_BOUND ( 'NONE', #278, .T. ) ;
#127 = CIRCLE ( 'NONE', #141, 0.3124999999999999445 ) ;
#128 = DIRECTION ( 'NONE',  ( -0.000000000000000000, -0.000000000000000000, -1.000000000000000000 ) ) ;
#129 = EDGE_CURVE ( 'NONE', #239, #254, #31, .T. ) ;
#130 = ORIENTED_EDGE ( 'NONE', *, *, #67, .T. ) ;
#131 = UNCERTAINTY_MEASURE_WITH_UNIT (LENGTH_MEASURE( 1.000000000000000082E-05 ), #144, 'distance_accuracy_value', 'NONE');
#132 = FACE_OUTER_BOUND ( 'NONE', #1, .T. ) ;
#133 = ADVANCED_FACE ( 'NONE', ( #246 ), #207, .F. ) ;
#134 = DIRECTION ( 'NONE',  ( -0.000000000000000000, -0.000000000000000000, -1.000000000000000000 ) ) ;
#135 = SURFACE_SIDE_STYLE ('',( #202 ) ) ;
#136 = VECTOR ( 'NONE', #122, 39.37007874015748143 ) ;
#137 = FILL_AREA_STYLE ('',( #69 ) ) ;
#138 =( LENGTH_UNIT ( ) NAMED_UNIT ( * ) SI_UNIT ( $, .METRE. ) );
#139 = APPLICATION_CONTEXT ( 'automotive_design' ) ;
#140 = ADVANCED_FACE ( 'NONE', ( #269 ), #38, .T. ) ;
#141 = AXIS2_PLACEMENT_3D ( 'NONE', #186, #209, #268 ) ;
#142 = DIRECTION ( 'NONE',  ( -1.000000000000000000, 0.000000000000000000, 0.000000000000000000 ) ) ;
#143 = EDGE_LOOP ( 'NONE', ( #53, #285 ) ) ;
#144 =( CONVERSION_BASED_UNIT ( 'INCH', #95 ) LENGTH_UNIT ( ) NAMED_UNIT ( #290 ) );
#145 = CARTESIAN_POINT ( 'NONE',  ( 0.000000000000000000, 0.3749999999999999445, 0.09375000000000005551 ) ) ;
#146 = VERTEX_POINT ( 'NONE', #111 ) ;
#147 = CARTESIAN_POINT ( 'NONE',  ( 0.000000000000000000, -2.846158715045953731E-17, -0.1562500000000000278 ) ) ;
#148 = ORIENTED_EDGE ( 'NONE', *, *, #225, .F. ) ;
#149 = CARTESIAN_POINT ( 'NONE',  ( -0.3124999999999999445, -2.846158715045953731E-17, -0.1562500000000000000 ) ) ;
#150 = MANIFOLD_SOLID_BREP ( 'Revolve1', #109 ) ;
#151 = ORIENTED_EDGE ( 'NONE', *, *, #15, .T. ) ;
#152 = CARTESIAN_POINT ( 'NONE',  ( 0.3749999999999999445, 1.746266781756620179E-17, 0.09375000000000005551 ) ) ;
#153 = MECHANICAL_DESIGN_GEOMETRIC_PRESENTATION_REPRESENTATION (  '', ( #49 ), #113 ) ;
#154 = EDGE_LOOP ( 'NONE', ( #226, #124, #22, #93 ) ) ;
#155 = CARTESIAN_POINT ( 'NONE',  ( 0.000000000000000000, -2.846158715045953731E-17, 0.09375000000000005551 ) ) ;
#156 = CYLINDRICAL_SURFACE ( 'NONE', #244, 0.3124999999999999445 ) ;
#157 = APPLICATION_CONTEXT ( 'automotive_design' ) ;
#158 = EDGE_LOOP ( 'NONE', ( #91, #104 ) ) ;
#159 = DIRECTION ( 'NONE',  ( -0.000000000000000000, -0.000000000000000000, -1.000000000000000000 ) ) ;
#160 = CARTESIAN_POINT ( 'NONE',  ( 0.3749999999999998890, 1.746266781756619255E-17, 0.1562500000000000833 ) ) ;
#161 = EDGE_CURVE ( 'NONE', #75, #213, #18, .T. ) ;
#162 = FACE_OUTER_BOUND ( 'NONE', #56, .T. ) ;
#163 = EDGE_CURVE ( 'NONE', #213, #254, #102, .T. ) ;
#164 =( NAMED_UNIT ( * ) SI_UNIT ( $, .STERADIAN. ) SOLID_ANGLE_UNIT ( ) );
#165 = AXIS2_PLACEMENT_3D ( 'NONE', #60, #159, #232 ) ;
#166 = CARTESIAN_POINT ( 'NONE',  ( 0.000000000000000000, -2.846158715045953731E-17, 0.1562500000000000833 ) ) ;
#167 = FILL_AREA_STYLE_COLOUR ( '', #175 ) ;
#168 = DIRECTION ( 'NONE',  ( -0.000000000000000000, -0.000000000000000000, -1.000000000000000000 ) ) ;
#169 = CIRCLE ( 'NONE', #203, 0.2022716535433070895 ) ;
#170 = ORIENTED_EDGE ( 'NONE', *, *, #265, .F. ) ;
#171 = ADVANCED_FACE ( 'NONE', ( #162, #249 ), #45, .T. ) ;
#172 = ORIENTED_EDGE ( 'NONE', *, *, #216, .T. ) ;
#173 = DIRECTION ( 'NONE',  ( 0.000000000000000000, 0.000000000000000000, 1.000000000000000000 ) ) ;
#174 = CARTESIAN_POINT ( 'NONE',  ( -0.3749999999999999445, -2.846158715045953731E-17, -0.1562500000000000000 ) ) ;
#175 = COLOUR_RGB ( '',0.6196078431372549211, 0.4078431372549019551, 0.2000000000000000111 ) ;
#176 = CIRCLE ( 'NONE', #123, 0.3124999999999999445 ) ;
#177 = UNCERTAINTY_MEASURE_WITH_UNIT (LENGTH_MEASURE( 1.000000000000000082E-05 ), #237, 'distance_accuracy_value', 'NONE');
#178 = DIRECTION ( 'NONE',  ( -0.000000000000000000, -0.000000000000000000, -1.000000000000000000 ) ) ;
#179 = EDGE_CURVE ( 'NONE', #72, #118, #127, .T. ) ;
#180 = PRODUCT_CONTEXT ( 'NONE', #139, 'mechanical' ) ;
#181 = CARTESIAN_POINT ( 'NONE',  ( 0.3749999999999999445, 1.746266781756620179E-17, -0.1562500000000000000 ) ) ;
#182 = VERTEX_POINT ( 'NONE', #160 ) ;
#183 = CIRCLE ( 'NONE', #204, 0.3749999999999998890 ) ;
#184 = DIRECTION ( 'NONE',  ( -1.000000000000000000, 0.000000000000000000, 0.000000000000000000 ) ) ;
#185 = EDGE_CURVE ( 'NONE', #118, #72, #294, .T. ) ;
#186 = CARTESIAN_POINT ( 'NONE',  ( 0.000000000000000000, -2.846158715045953731E-17, -0.1562500000000000833 ) ) ;
#187 = DIRECTION ( 'NONE',  ( -0.000000000000000000, -0.000000000000000000, -1.000000000000000000 ) ) ;
#188 = CARTESIAN_POINT ( 'NONE',  ( 0.000000000000000000, -2.846158715045953731E-17, -0.1562500000000000000 ) ) ;
#189 = ORIENTED_EDGE ( 'NONE', *, *, #67, .F. ) ;
#190 = CYLINDRICAL_SURFACE ( 'NONE', #206, 0.3749999999999999445 ) ;
#191 = ORIENTED_EDGE ( 'NONE', *, *, #161, .T. ) ;
#192 = ORIENTED_EDGE ( 'NONE', *, *, #225, .T. ) ;
#193 = EDGE_CURVE ( 'NONE', #260, #72, #40, .T. ) ;
#194 = PRESENTATION_LAYER_ASSIGNMENT (  '', '', ( #49 ) ) ;
#195 = LINE ( 'NONE', #181, #62 ) ;
#196 = ORIENTED_EDGE ( 'NONE', *, *, #129, .F. ) ;
#197 = CARTESIAN_POINT ( 'NONE',  ( 0.000000000000000000, -2.846158715045953731E-17, 0.1562500000000000833 ) ) ;
#198 = UNCERTAINTY_MEASURE_WITH_UNIT (LENGTH_MEASURE( 1.000000000000000082E-05 ), #120, 'distance_accuracy_value', 'NONE');
#199 = DIRECTION ( 'NONE',  ( -0.000000000000000000, -0.000000000000000000, -1.000000000000000000 ) ) ;
#200 = ADVANCED_FACE ( 'NONE', ( #96 ), #190, .T. ) ;
#201 = ORIENTED_EDGE ( 'NONE', *, *, #296, .F. ) ;
#202 = SURFACE_STYLE_FILL_AREA ( #137 ) ;
#203 = AXIS2_PLACEMENT_3D ( 'NONE', #147, #233, #47 ) ;
#204 = AXIS2_PLACEMENT_3D ( 'NONE', #197, #178, #8 ) ;
#205 = DIRECTION ( 'NONE',  ( -1.000000000000000000, 0.000000000000000000, 0.000000000000000000 ) ) ;
#206 = AXIS2_PLACEMENT_3D ( 'NONE', #229, #14, #205 ) ;
#207 = CYLINDRICAL_SURFACE ( 'NONE', #21, 0.2022716535433070895 ) ;
#208 = APPLICATION_PROTOCOL_DEFINITION ( 'draft international standard', 'automotive_design', 1998, #139 ) ;
#209 = DIRECTION ( 'NONE',  ( -0.000000000000000000, -0.000000000000000000, -1.000000000000000000 ) ) ;
#210 = ADVANCED_FACE ( 'NONE', ( #295, #86 ), #220, .T. ) ;
#211 = ORIENTED_EDGE ( 'NONE', *, *, #82, .F. ) ;
#212 = SURFACE_STYLE_USAGE ( .BOTH. , #26 ) ;
#213 = VERTEX_POINT ( 'NONE', #23 ) ;
#214 = CYLINDRICAL_SURFACE ( 'NONE', #218, 0.3749999999999999445 ) ;
#215 = DIRECTION ( 'NONE',  ( -1.000000000000000000, 0.000000000000000000, 0.000000000000000000 ) ) ;
#216 = EDGE_CURVE ( 'NONE', #235, #182, #66, .T. ) ;
#217 = DIRECTION ( 'NONE',  ( -0.000000000000000000, -0.000000000000000000, -1.000000000000000000 ) ) ;
#218 = AXIS2_PLACEMENT_3D ( 'NONE', #188, #98, #52 ) ;
#219 = AXIS2_PLACEMENT_3D ( 'NONE', #279, #280, #302 ) ;
#220 = PLANE ( 'NONE',  #221 ) ;
#221 = AXIS2_PLACEMENT_3D ( 'NONE', #73, #223, #255 ) ;
#222 = EDGE_LOOP ( 'NONE', ( #189, #57, #100, #211 ) ) ;
#223 = DIRECTION ( 'NONE',  ( 0.000000000000000000, 0.000000000000000000, 1.000000000000000000 ) ) ;
#224 = ORIENTED_EDGE ( 'NONE', *, *, #4, .F. ) ;
#225 = EDGE_CURVE ( 'NONE', #5, #33, #94, .T. ) ;
#226 = ORIENTED_EDGE ( 'NONE', *, *, #193, .F. ) ;
#227 = CARTESIAN_POINT ( 'NONE',  ( 0.000000000000000000, -2.846158715045953731E-17, -0.1562500000000000000 ) ) ;
#228 =( NAMED_UNIT ( * ) SI_UNIT ( $, .STERADIAN. ) SOLID_ANGLE_UNIT ( ) );
#229 = CARTESIAN_POINT ( 'NONE',  ( 0.000000000000000000, -2.846158715045953731E-17, -0.1562500000000000000 ) ) ;
#230 = SURFACE_STYLE_USAGE ( .BOTH. , #135 ) ;
#231 = ORIENTED_EDGE ( 'NONE', *, *, #129, .T. ) ;
#232 = DIRECTION ( 'NONE',  ( -1.000000000000000000, 0.000000000000000000, 0.000000000000000000 ) ) ;
#233 = DIRECTION ( 'NONE',  ( -0.000000000000000000, -0.000000000000000000, -1.000000000000000000 ) ) ;
#234 = EDGE_CURVE ( 'NONE', #254, #213, #169, .T. ) ;
#235 = VERTEX_POINT ( 'NONE', #272 ) ;
#236 =( NAMED_UNIT ( * ) PLANE_ANGLE_UNIT ( ) SI_UNIT ( $, .RADIAN. ) );
#237 =( CONVERSION_BASED_UNIT ( 'INCH', #284 ) LENGTH_UNIT ( ) NAMED_UNIT ( #42 ) );
#238 = CARTESIAN_POINT ( 'NONE',  ( -0.3124999999999999445, -2.846158715045953731E-17, -0.1562500000000000833 ) ) ;
#239 = VERTEX_POINT ( 'NONE', #25 ) ;
#240 = ADVANCED_FACE ( 'NONE', ( #116 ), #214, .T. ) ;
#241 = ORIENTED_EDGE ( 'NONE', *, *, #234, .T. ) ;
#242 = CARTESIAN_POINT ( 'NONE',  ( -0.3749999999999999445, -2.846158715045953731E-17, 0.09375000000000005551 ) ) ;
#243 =( NAMED_UNIT ( * ) SI_UNIT ( $, .STERADIAN. ) SOLID_ANGLE_UNIT ( ) );
#244 = AXIS2_PLACEMENT_3D ( 'NONE', #266, #217, #6 ) ;
#245 = ORIENTED_EDGE ( 'NONE', *, *, #15, .F. ) ;
#246 = FACE_OUTER_BOUND ( 'NONE', #256, .T. ) ;
#247 = CARTESIAN_POINT ( 'NONE',  ( 0.3124999999999999445, 9.808625322895244249E-18, -0.1562500000000000000 ) ) ;
#248 = EDGE_CURVE ( 'NONE', #75, #239, #11, .T. ) ;
#249 = FACE_BOUND ( 'NONE', #257, .T. ) ;
#250 = AXIS2_PLACEMENT_3D ( 'NONE', #276, #90, #142 ) ;
#251 = AXIS2_PLACEMENT_3D ( 'NONE', #145, #13, #184 ) ;
#252 = DIRECTION ( 'NONE',  ( -1.000000000000000000, 0.000000000000000000, 0.000000000000000000 ) ) ;
#253 = SURFACE_STYLE_FILL_AREA ( #119 ) ;
#254 = VERTEX_POINT ( 'NONE', #99 ) ;
#255 = DIRECTION ( 'NONE',  ( 1.000000000000000000, 0.000000000000000000, -0.000000000000000000 ) ) ;
#256 = EDGE_LOOP ( 'NONE', ( #64, #191, #286, #196 ) ) ;
#257 = EDGE_LOOP ( 'NONE', ( #245, #201 ) ) ;
#258 = ORIENTED_EDGE ( 'NONE', *, *, #185, .F. ) ;
#259 = ADVANCED_BREP_SHAPE_REPRESENTATION ( 'WCP-0997 Rev1', ( #150, #76 ), #19 ) ;
#260 = VERTEX_POINT ( 'NONE', #281 ) ;
#261 = AXIS2_PLACEMENT_3D ( 'NONE', #29, #117, #215 ) ;
#262 =( NAMED_UNIT ( * ) PLANE_ANGLE_UNIT ( ) SI_UNIT ( $, .RADIAN. ) );
#263 = EDGE_LOOP ( 'NONE', ( #172, #130, #148, #224 ) ) ;
#264 = DIRECTION ( 'NONE',  ( -1.000000000000000000, 0.000000000000000000, 0.000000000000000000 ) ) ;
#265 = EDGE_CURVE ( 'NONE', #239, #75, #107, .T. ) ;
#266 = CARTESIAN_POINT ( 'NONE',  ( 0.000000000000000000, -2.846158715045953731E-17, -0.1562500000000000000 ) ) ;
#267 = VECTOR ( 'NONE', #303, 39.37007874015748143 ) ;
#268 = DIRECTION ( 'NONE',  ( -1.000000000000000000, 0.000000000000000000, 0.000000000000000000 ) ) ;
#269 = FACE_OUTER_BOUND ( 'NONE', #154, .T. ) ;
#270 = PRODUCT_RELATED_PRODUCT_CATEGORY ( 'part', '', ( #89 ) ) ;
#271 = CARTESIAN_POINT ( 'NONE',  ( -0.2022716535433070895, -2.846158715045953731E-17, -0.1562500000000000000 ) ) ;
#272 = CARTESIAN_POINT ( 'NONE',  ( -0.3749999999999998890, -2.846158715045953731E-17, 0.1562500000000000833 ) ) ;
#273 =( GEOMETRIC_REPRESENTATION_CONTEXT ( 3 ) GLOBAL_UNCERTAINTY_ASSIGNED_CONTEXT ( ( #177 ) ) GLOBAL_UNIT_ASSIGNED_CONTEXT ( ( #237, #262, #243 ) ) REPRESENTATION_CONTEXT ( 'NONE', 'WORKASPACE' ) );
#274 = ORIENTED_EDGE ( 'NONE', *, *, #161, .F. ) ;
#275 = VECTOR ( 'NONE', #187, 39.37007874015748143 ) ;
#276 = CARTESIAN_POINT ( 'NONE',  ( 0.000000000000000000, -2.846158715045953731E-17, 0.09375000000000005551 ) ) ;
#277 = DIRECTION ( 'NONE',  ( -1.000000000000000000, 0.000000000000000000, 0.000000000000000000 ) ) ;
#278 = EDGE_LOOP ( 'NONE', ( #274, #170, #231, #241 ) ) ;
#279 = CARTESIAN_POINT ( 'NONE',  ( 0.000000000000000000, -2.846158715045953731E-17, 0.1562500000000000000 ) ) ;
#280 = DIRECTION ( 'NONE',  ( -0.000000000000000000, -0.000000000000000000, -1.000000000000000000 ) ) ;
#281 = CARTESIAN_POINT ( 'NONE',  ( 0.3124999999999999445, 9.808625322895244249E-18, 0.09375000000000005551 ) ) ;
#282 = ORIENTED_EDGE ( 'NONE', *, *, #185, .T. ) ;
#283 = CARTESIAN_POINT ( 'NONE',  ( 0.000000000000000000, -2.846158715045953731E-17, 0.09375000000000005551 ) ) ;
#284 = LENGTH_MEASURE_WITH_UNIT ( LENGTH_MEASURE( 0.02539999999999999897 ), #28 );
#285 = ORIENTED_EDGE ( 'NONE', *, *, #92, .F. ) ;
#286 = ORIENTED_EDGE ( 'NONE', *, *, #163, .T. ) ;
#287 = AXIS2_PLACEMENT_3D ( 'NONE', #108, #80, #74 ) ;
#288 = ORIENTED_EDGE ( 'NONE', *, *, #193, .T. ) ;
#289 = ORIENTED_EDGE ( 'NONE', *, *, #179, .T. ) ;
#290 = DIMENSIONAL_EXPONENTS ( 1.000000000000000000, 0.000000000000000000, 0.000000000000000000, 0.000000000000000000, 0.000000000000000000, 0.000000000000000000, 0.000000000000000000 ) ;
#291 = CARTESIAN_POINT ( 'NONE',  ( 0.000000000000000000, -2.846158715045953731E-17, -0.1562500000000000278 ) ) ;
#292 = AXIS2_PLACEMENT_3D ( 'NONE', #2, #51, #115 ) ;
#293 = AXIS2_PLACEMENT_3D ( 'NONE', #283, #199, #264 ) ;
#294 = CIRCLE ( 'NONE', #165, 0.3124999999999999445 ) ;
#295 = FACE_BOUND ( 'NONE', #70, .T. ) ;
#296 = EDGE_CURVE ( 'NONE', #260, #146, #83, .T. ) ;
#297 = DIRECTION ( 'NONE',  ( -0.000000000000000000, -0.000000000000000000, -1.000000000000000000 ) ) ;
#298 = DIRECTION ( 'NONE',  ( -1.000000000000000000, 0.000000000000000000, 0.000000000000000000 ) ) ;
#299 = AXIS2_PLACEMENT_3D ( 'NONE', #227, #134, #106 ) ;
#300 = EDGE_CURVE ( 'NONE', #146, #118, #301, .T. ) ;
#301 = LINE ( 'NONE', #149, #136 ) ;
#302 = DIRECTION ( 'NONE',  ( -1.000000000000000000, 0.000000000000000000, 0.000000000000000000 ) ) ;
#303 = DIRECTION ( 'NONE',  ( -0.000000000000000000, -0.000000000000000000, -1.000000000000000000 ) ) ;
ENDSEC;
END-ISO-10303-21;
