ISO-10303-21;
HEADER;
FILE_DESCRIPTION (( 'STEP AP214' ),
    '1' );
FILE_NAME ('WCP-0996 Rev1.step',
    '2023-12-22T21:48:14',
    ( '' ),
    ( '' ),
    'SwSTEP 2.0',
    'SolidWorks 2022',
    '' );
FILE_SCHEMA (( 'AUTOMOTIVE_DESIGN' ));
ENDSEC;

DATA;
#1 =( LENGTH_UNIT ( ) NAMED_UNIT ( * ) SI_UNIT ( $, .METRE. ) );
#2 = FACE_OUTER_BOUND ( 'NONE', #248, .T. ) ;
#3 = DIRECTION ( 'NONE',  ( -0.000000000000000000, -0.000000000000000000, -1.000000000000000000 ) ) ;
#4 = AXIS2_PLACEMENT_3D ( 'NONE', #174, #284, #28 ) ;
#5 =( NAMED_UNIT ( * ) PLANE_ANGLE_UNIT ( ) SI_UNIT ( $, .RADIAN. ) );
#6 = VERTEX_POINT ( 'NONE', #70 ) ;
#7 = DIRECTION ( 'NONE',  ( -0.000000000000000000, -0.000000000000000000, -1.000000000000000000 ) ) ;
#8 = EDGE_CURVE ( 'NONE', #114, #288, #15, .T. ) ;
#9 = CIRCLE ( 'NONE', #246, 0.3124999999999999445 ) ;
#10 = FACE_OUTER_BOUND ( 'NONE', #155, .T. ) ;
#11 = VERTEX_POINT ( 'NONE', #228 ) ;
#12 = ORIENTED_EDGE ( 'NONE', *, *, #148, .F. ) ;
#13 = ORIENTED_EDGE ( 'NONE', *, *, #175, .T. ) ;
#14 =( GEOMETRIC_REPRESENTATION_CONTEXT ( 3 ) GLOBAL_UNCERTAINTY_ASSIGNED_CONTEXT ( ( #34 ) ) GLOBAL_UNIT_ASSIGNED_CONTEXT ( ( #238, #5, #82 ) ) REPRESENTATION_CONTEXT ( 'NONE', 'WORKASPACE' ) );
#15 = CIRCLE ( 'NONE', #26, 0.3749999999999999445 ) ;
#16 = EDGE_CURVE ( 'NONE', #90, #253, #169, .T. ) ;
#17 = ORIENTED_EDGE ( 'NONE', *, *, #16, .F. ) ;
#18 = FACE_OUTER_BOUND ( 'NONE', #159, .T. ) ;
#19 = ORIENTED_EDGE ( 'NONE', *, *, #16, .T. ) ;
#20 = CARTESIAN_POINT ( 'NONE',  ( 0.000000000000000000, -2.846158715045953731E-17, -0.1562500000000000000 ) ) ;
#21 = AXIS2_PLACEMENT_3D ( 'NONE', #20, #299, #99 ) ;
#22 = AXIS2_PLACEMENT_3D ( 'NONE', #182, #267, #61 ) ;
#23 = EDGE_LOOP ( 'NONE', ( #93, #245, #19, #207 ) ) ;
#24 = DIRECTION ( 'NONE',  ( -0.000000000000000000, -0.000000000000000000, -1.000000000000000000 ) ) ;
#25 =( NAMED_UNIT ( * ) SI_UNIT ( $, .STERADIAN. ) SOLID_ANGLE_UNIT ( ) );
#26 = AXIS2_PLACEMENT_3D ( 'NONE', #66, #233, #249 ) ;
#27 = DIRECTION ( 'NONE',  ( -1.000000000000000000, 0.000000000000000000, 0.000000000000000000 ) ) ;
#28 = DIRECTION ( 'NONE',  ( 1.000000000000000000, 0.000000000000000000, -0.000000000000000000 ) ) ;
#29 = DIRECTION ( 'NONE',  ( -0.000000000000000000, -0.000000000000000000, -1.000000000000000000 ) ) ;
#30 = PRODUCT_DEFINITION_FORMATION_WITH_SPECIFIED_SOURCE ( 'ANY', '', #277, .NOT_KNOWN. ) ;
#31 = SHAPE_DEFINITION_REPRESENTATION ( #45, #101 ) ;
#32 = AXIS2_PLACEMENT_3D ( 'NONE', #102, #29, #48 ) ;
#33 = AXIS2_PLACEMENT_3D ( 'NONE', #81, #146, #27 ) ;
#34 = UNCERTAINTY_MEASURE_WITH_UNIT (LENGTH_MEASURE( 1.000000000000000082E-05 ), #238, 'distance_accuracy_value', 'NONE');
#35 = ORIENTED_EDGE ( 'NONE', *, *, #175, .F. ) ;
#36 = AXIS2_PLACEMENT_3D ( 'NONE', #256, #164, #208 ) ;
#37 = ORIENTED_EDGE ( 'NONE', *, *, #209, .F. ) ;
#38 = ORIENTED_EDGE ( 'NONE', *, *, #8, .F. ) ;
#39 = CARTESIAN_POINT ( 'NONE',  ( -0.3124999999999999445, -2.846158715045953731E-17, 0.09375000000000005551 ) ) ;
#40 = AXIS2_PLACEMENT_3D ( 'NONE', #189, #24, #270 ) ;
#41 = DIMENSIONAL_EXPONENTS ( 1.000000000000000000, 0.000000000000000000, 0.000000000000000000, 0.000000000000000000, 0.000000000000000000, 0.000000000000000000, 0.000000000000000000 ) ;
#42 = LINE ( 'NONE', #139, #196 ) ;
#43 = EDGE_CURVE ( 'NONE', #288, #114, #297, .T. ) ;
#44 = VERTEX_POINT ( 'NONE', #39 ) ;
#45 = PRODUCT_DEFINITION_SHAPE ( 'NONE', 'NONE',  #154 ) ;
#46 = FACE_OUTER_BOUND ( 'NONE', #136, .T. ) ;
#47 = MECHANICAL_DESIGN_GEOMETRIC_PRESENTATION_REPRESENTATION (  '', ( #72 ), #151 ) ;
#48 = DIRECTION ( 'NONE',  ( -1.000000000000000000, 0.000000000000000000, 0.000000000000000000 ) ) ;
#49 = FACE_BOUND ( 'NONE', #88, .T. ) ;
#50 = CARTESIAN_POINT ( 'NONE',  ( 0.000000000000000000, -2.846158715045953731E-17, -0.1562500000000000833 ) ) ;
#51 = ADVANCED_FACE ( 'NONE', ( #190 ), #138, .T. ) ;
#52 = LENGTH_MEASURE_WITH_UNIT ( LENGTH_MEASURE( 0.02539999999999999897 ), #1 );
#53 = VECTOR ( 'NONE', #98, 39.37007874015748143 ) ;
#54 = CARTESIAN_POINT ( 'NONE',  ( -0.3124999999999999445, -2.846158715045953731E-17, -0.1562500000000000833 ) ) ;
#55 = ADVANCED_FACE ( 'NONE', ( #254 ), #69, .F. ) ;
#56 = DIRECTION ( 'NONE',  ( -0.000000000000000000, -0.000000000000000000, -1.000000000000000000 ) ) ;
#57 = UNCERTAINTY_MEASURE_WITH_UNIT (LENGTH_MEASURE( 1.000000000000000082E-05 ), #149, 'distance_accuracy_value', 'NONE');
#58 = CIRCLE ( 'NONE', #171, 0.3124999999999999445 ) ;
#59 = EDGE_CURVE ( 'NONE', #44, #137, #42, .T. ) ;
#60 = ORIENTED_EDGE ( 'NONE', *, *, #160, .F. ) ;
#61 = DIRECTION ( 'NONE',  ( -1.000000000000000000, 0.000000000000000000, 0.000000000000000000 ) ) ;
#62 = CIRCLE ( 'NONE', #255, 0.1880000000000000282 ) ;
#63 = EDGE_LOOP ( 'NONE', ( #211, #87, #264, #135 ) ) ;
#64 = DIRECTION ( 'NONE',  ( -0.000000000000000000, -0.000000000000000000, -1.000000000000000000 ) ) ;
#65 = CARTESIAN_POINT ( 'NONE',  ( 0.3749999999999999445, 1.746266781756620179E-17, -0.1562500000000000000 ) ) ;
#66 = CARTESIAN_POINT ( 'NONE',  ( 0.000000000000000000, -2.846158715045953731E-17, 0.1562500000000000833 ) ) ;
#67 = ADVANCED_FACE ( 'NONE', ( #118 ), #295, .T. ) ;
#68 = DIRECTION ( 'NONE',  ( -0.000000000000000000, -0.000000000000000000, -1.000000000000000000 ) ) ;
#69 = CYLINDRICAL_SURFACE ( 'NONE', #91, 0.1880000000000000282 ) ;
#70 = CARTESIAN_POINT ( 'NONE',  ( -0.3749999999999999445, -2.846158715045953731E-17, 0.09375000000000005551 ) ) ;
#71 = CARTESIAN_POINT ( 'NONE',  ( 0.000000000000000000, -2.846158715045953731E-17, 0.1562500000000000000 ) ) ;
#72 = STYLED_ITEM ( 'NONE', ( #103 ), #94 ) ;
#73 = CARTESIAN_POINT ( 'NONE',  ( -0.3749999999999999445, -2.846158715045953731E-17, -0.1562500000000000000 ) ) ;
#74 = CIRCLE ( 'NONE', #243, 0.1880000000000000282 ) ;
#75 = PRESENTATION_STYLE_ASSIGNMENT (( #300 ) ) ;
#76 = ADVANCED_FACE ( 'NONE', ( #46 ), #301, .T. ) ;
#77 = SURFACE_SIDE_STYLE ('',( #145 ) ) ;
#78 =( NAMED_UNIT ( * ) SI_UNIT ( $, .STERADIAN. ) SOLID_ANGLE_UNIT ( ) );
#79 = PRODUCT_DEFINITION_CONTEXT ( 'detailed design', #123, 'design' ) ;
#80 = FACE_OUTER_BOUND ( 'NONE', #134, .T. ) ;
#81 = CARTESIAN_POINT ( 'NONE',  ( 0.000000000000000000, -2.846158715045953731E-17, 0.09375000000000005551 ) ) ;
#82 =( NAMED_UNIT ( * ) SI_UNIT ( $, .STERADIAN. ) SOLID_ANGLE_UNIT ( ) );
#83 = VERTEX_POINT ( 'NONE', #195 ) ;
#84 = APPLICATION_PROTOCOL_DEFINITION ( 'draft international standard', 'automotive_design', 1998, #123 ) ;
#85 = DIRECTION ( 'NONE',  ( 1.000000000000000000, 0.000000000000000000, 0.000000000000000000 ) ) ;
#86 = EDGE_CURVE ( 'NONE', #137, #157, #58, .T. ) ;
#87 = ORIENTED_EDGE ( 'NONE', *, *, #148, .T. ) ;
#88 = EDGE_LOOP ( 'NONE', ( #158, #12 ) ) ;
#89 = AXIS2_PLACEMENT_3D ( 'NONE', #109, #179, #85 ) ;
#90 = VERTEX_POINT ( 'NONE', #281 ) ;
#91 = AXIS2_PLACEMENT_3D ( 'NONE', #166, #162, #232 ) ;
#92 = PRESENTATION_LAYER_ASSIGNMENT (  '', '', ( #72 ) ) ;
#93 = ORIENTED_EDGE ( 'NONE', *, *, #178, .F. ) ;
#94 = MANIFOLD_SOLID_BREP ( 'Revolve1', #163 ) ;
#95 = EDGE_LOOP ( 'NONE', ( #37, #250, #186, #294 ) ) ;
#96 = DIRECTION ( 'NONE',  ( -0.000000000000000000, -0.000000000000000000, -1.000000000000000000 ) ) ;
#97 = ORIENTED_EDGE ( 'NONE', *, *, #221, .F. ) ;
#98 = DIRECTION ( 'NONE',  ( -0.000000000000000000, -0.000000000000000000, -1.000000000000000000 ) ) ;
#99 = DIRECTION ( 'NONE',  ( -1.000000000000000000, 0.000000000000000000, 0.000000000000000000 ) ) ;
#100 = FACE_BOUND ( 'NONE', #227, .T. ) ;
#101 = ADVANCED_BREP_SHAPE_REPRESENTATION ( 'WCP-0996 Rev1', ( #94, #89 ), #126 ) ;
#102 = CARTESIAN_POINT ( 'NONE',  ( 0.000000000000000000, -2.846158715045953731E-17, -0.1562500000000000000 ) ) ;
#103 = PRESENTATION_STYLE_ASSIGNMENT (( #239 ) ) ;
#104 = FACE_BOUND ( 'NONE', #116, .T. ) ;
#105 = PRODUCT_RELATED_PRODUCT_CATEGORY ( 'part', '', ( #277 ) ) ;
#106 = FILL_AREA_STYLE ('',( #150 ) ) ;
#107 = CIRCLE ( 'NONE', #183, 0.1880000000000000282 ) ;
#108 = EDGE_CURVE ( 'NONE', #180, #253, #62, .T. ) ;
#109 = CARTESIAN_POINT ( 'NONE',  ( 0.000000000000000000, 0.000000000000000000, 0.000000000000000000 ) ) ;
#110 = AXIS2_PLACEMENT_3D ( 'NONE', #220, #7, #172 ) ;
#111 = ORIENTED_EDGE ( 'NONE', *, *, #108, .F. ) ;
#112 = ORIENTED_EDGE ( 'NONE', *, *, #178, .T. ) ;
#113 = CIRCLE ( 'NONE', #36, 0.3749999999999999445 ) ;
#114 = VERTEX_POINT ( 'NONE', #176 ) ;
#115 = AXIS2_PLACEMENT_3D ( 'NONE', #286, #263, #244 ) ;
#116 = EDGE_LOOP ( 'NONE', ( #60, #111 ) ) ;
#117 = LINE ( 'NONE', #73, #147 ) ;
#118 = FACE_OUTER_BOUND ( 'NONE', #63, .T. ) ;
#119 =( NAMED_UNIT ( * ) PLANE_ANGLE_UNIT ( ) SI_UNIT ( $, .RADIAN. ) );
#120 = ORIENTED_EDGE ( 'NONE', *, *, #202, .T. ) ;
#121 = ORIENTED_EDGE ( 'NONE', *, *, #59, .F. ) ;
#122 = EDGE_CURVE ( 'NONE', #44, #225, #291, .T. ) ;
#123 = APPLICATION_CONTEXT ( 'automotive_design' ) ;
#124 = CARTESIAN_POINT ( 'NONE',  ( 0.000000000000000000, -2.846158715045953731E-17, -0.1562500000000000833 ) ) ;
#125 = PLANE ( 'NONE',  #131 ) ;
#126 =( GEOMETRIC_REPRESENTATION_CONTEXT ( 3 ) GLOBAL_UNCERTAINTY_ASSIGNED_CONTEXT ( ( #203 ) ) GLOBAL_UNIT_ASSIGNED_CONTEXT ( ( #231, #119, #78 ) ) REPRESENTATION_CONTEXT ( 'NONE', 'WORKASPACE' ) );
#127 = ADVANCED_FACE ( 'NONE', ( #100, #80 ), #199, .T. ) ;
#128 = CARTESIAN_POINT ( 'NONE',  ( 0.3124999999999999445, 9.808625322895244249E-18, -0.1562500000000000833 ) ) ;
#129 = PRODUCT_CONTEXT ( 'NONE', #201, 'mechanical' ) ;
#130 = CARTESIAN_POINT ( 'NONE',  ( 0.1880000000000000282, -5.438227326489291760E-18, -0.1562500000000000000 ) ) ;
#131 = AXIS2_PLACEMENT_3D ( 'NONE', #144, #229, #187 ) ;
#132 = AXIS2_PLACEMENT_3D ( 'NONE', #188, #210, #271 ) ;
#133 = AXIS2_PLACEMENT_3D ( 'NONE', #258, #282, #240 ) ;
#134 = EDGE_LOOP ( 'NONE', ( #265, #38 ) ) ;
#135 = ORIENTED_EDGE ( 'NONE', *, *, #217, .F. ) ;
#136 = EDGE_LOOP ( 'NONE', ( #192, #287, #289, #121 ) ) ;
#137 = VERTEX_POINT ( 'NONE', #54 ) ;
#138 = CYLINDRICAL_SURFACE ( 'NONE', #132, 0.3749999999999999445 ) ;
#139 = CARTESIAN_POINT ( 'NONE',  ( -0.3124999999999999445, -2.846158715045953731E-17, -0.1562500000000000000 ) ) ;
#140 = LENGTH_MEASURE_WITH_UNIT ( LENGTH_MEASURE( 0.02539999999999999897 ), #252 );
#141 = DIRECTION ( 'NONE',  ( -1.000000000000000000, 0.000000000000000000, 0.000000000000000000 ) ) ;
#142 = EDGE_LOOP ( 'NONE', ( #120, #278 ) ) ;
#143 = VECTOR ( 'NONE', #170, 39.37007874015748143 ) ;
#144 = CARTESIAN_POINT ( 'NONE',  ( 0.000000000000000000, 0.3749999999999999445, 0.09375000000000004163 ) ) ;
#145 = SURFACE_STYLE_FILL_AREA ( #106 ) ;
#146 = DIRECTION ( 'NONE',  ( -0.000000000000000000, -0.000000000000000000, -1.000000000000000000 ) ) ;
#147 = VECTOR ( 'NONE', #96, 39.37007874015748143 ) ;
#148 = EDGE_CURVE ( 'NONE', #225, #44, #234, .T. ) ;
#149 =( CONVERSION_BASED_UNIT ( 'INCH', #52 ) LENGTH_UNIT ( ) NAMED_UNIT ( #275 ) );
#150 = FILL_AREA_STYLE_COLOUR ( '', #204 ) ;
#151 =( GEOMETRIC_REPRESENTATION_CONTEXT ( 3 ) GLOBAL_UNCERTAINTY_ASSIGNED_CONTEXT ( ( #57 ) ) GLOBAL_UNIT_ASSIGNED_CONTEXT ( ( #149, #259, #25 ) ) REPRESENTATION_CONTEXT ( 'NONE', 'WORKASPACE' ) );
#152 = CARTESIAN_POINT ( 'NONE',  ( 0.1880000000000000282, -5.438227326489291760E-18, -0.1562500000000000278 ) ) ;
#153 = ORIENTED_EDGE ( 'NONE', *, *, #217, .T. ) ;
#154 = PRODUCT_DEFINITION ( 'UNKNOWN', '', #30, #79 ) ;
#155 = EDGE_LOOP ( 'NONE', ( #35, #112, #224, #17 ) ) ;
#156 = CIRCLE ( 'NONE', #110, 0.3749999999999999445 ) ;
#157 = VERTEX_POINT ( 'NONE', #128 ) ;
#158 = ORIENTED_EDGE ( 'NONE', *, *, #122, .F. ) ;
#159 = EDGE_LOOP ( 'NONE', ( #268, #184, #247, #97 ) ) ;
#160 = EDGE_CURVE ( 'NONE', #253, #180, #107, .T. ) ;
#161 = CARTESIAN_POINT ( 'NONE',  ( -0.3749999999999999445, -2.846158715045953731E-17, 0.1562500000000000833 ) ) ;
#162 = DIRECTION ( 'NONE',  ( -0.000000000000000000, -0.000000000000000000, -1.000000000000000000 ) ) ;
#163 = CLOSED_SHELL ( 'NONE', ( #76, #272, #185, #167, #55, #127, #51, #266, #67 ) ) ;
#164 = DIRECTION ( 'NONE',  ( -0.000000000000000000, -0.000000000000000000, -1.000000000000000000 ) ) ;
#165 = SURFACE_STYLE_FILL_AREA ( #168 ) ;
#166 = CARTESIAN_POINT ( 'NONE',  ( 0.000000000000000000, -2.846158715045953731E-17, -0.1562500000000000000 ) ) ;
#167 = ADVANCED_FACE ( 'NONE', ( #2, #104 ), #198, .T. ) ;
#168 = FILL_AREA_STYLE ('',( #257 ) ) ;
#169 = LINE ( 'NONE', #292, #261 ) ;
#170 = DIRECTION ( 'NONE',  ( -0.000000000000000000, -0.000000000000000000, -1.000000000000000000 ) ) ;
#171 = AXIS2_PLACEMENT_3D ( 'NONE', #50, #3, #215 ) ;
#172 = DIRECTION ( 'NONE',  ( -1.000000000000000000, 0.000000000000000000, 0.000000000000000000 ) ) ;
#173 = LINE ( 'NONE', #214, #53 ) ;
#174 = CARTESIAN_POINT ( 'NONE',  ( 0.000000000000000000, 0.1879999999999999727, 0.1562500000000000833 ) ) ;
#175 = EDGE_CURVE ( 'NONE', #83, #90, #74, .T. ) ;
#176 = CARTESIAN_POINT ( 'NONE',  ( 0.3749999999999999445, 1.746266781756620179E-17, 0.1562500000000000833 ) ) ;
#177 = DIRECTION ( 'NONE',  ( -0.000000000000000000, -0.000000000000000000, -1.000000000000000000 ) ) ;
#178 = EDGE_CURVE ( 'NONE', #83, #180, #213, .T. ) ;
#179 = DIRECTION ( 'NONE',  ( 0.000000000000000000, 0.000000000000000000, 1.000000000000000000 ) ) ;
#180 = VERTEX_POINT ( 'NONE', #152 ) ;
#181 = EDGE_CURVE ( 'NONE', #90, #83, #219, .T. ) ;
#182 = CARTESIAN_POINT ( 'NONE',  ( 0.000000000000000000, -2.846158715045953731E-17, -0.1562500000000000000 ) ) ;
#183 = AXIS2_PLACEMENT_3D ( 'NONE', #216, #177, #260 ) ;
#184 = ORIENTED_EDGE ( 'NONE', *, *, #209, .T. ) ;
#185 = ADVANCED_FACE ( 'NONE', ( #10 ), #200, .F. ) ;
#186 = ORIENTED_EDGE ( 'NONE', *, *, #221, .T. ) ;
#187 = DIRECTION ( 'NONE',  ( -1.000000000000000000, 0.000000000000000000, 0.000000000000000000 ) ) ;
#188 = CARTESIAN_POINT ( 'NONE',  ( 0.000000000000000000, -2.846158715045953731E-17, -0.1562500000000000000 ) ) ;
#189 = CARTESIAN_POINT ( 'NONE',  ( 0.000000000000000000, -2.846158715045953731E-17, -0.1562500000000000000 ) ) ;
#190 = FACE_OUTER_BOUND ( 'NONE', #95, .T. ) ;
#191 = CARTESIAN_POINT ( 'NONE',  ( -0.1880000000000000282, -2.846158715045953731E-17, -0.1562500000000000278 ) ) ;
#192 = ORIENTED_EDGE ( 'NONE', *, *, #122, .T. ) ;
#193 = DIRECTION ( 'NONE',  ( -1.000000000000000000, 0.000000000000000000, 0.000000000000000000 ) ) ;
#194 = LENGTH_MEASURE_WITH_UNIT ( LENGTH_MEASURE( 0.02539999999999999897 ), #235 );
#195 = CARTESIAN_POINT ( 'NONE',  ( 0.1880000000000000282, -5.438227326489291760E-18, 0.1562500000000000000 ) ) ;
#196 = VECTOR ( 'NONE', #230, 39.37007874015748143 ) ;
#197 = DIRECTION ( 'NONE',  ( -1.000000000000000000, 0.000000000000000000, 0.000000000000000000 ) ) ;
#198 = PLANE ( 'NONE',  #205 ) ;
#199 = PLANE ( 'NONE',  #4 ) ;
#200 = CYLINDRICAL_SURFACE ( 'NONE', #22, 0.1880000000000000282 ) ;
#201 = APPLICATION_CONTEXT ( 'automotive_design' ) ;
#202 = EDGE_CURVE ( 'NONE', #6, #11, #156, .T. ) ;
#203 = UNCERTAINTY_MEASURE_WITH_UNIT (LENGTH_MEASURE( 1.000000000000000082E-05 ), #231, 'distance_accuracy_value', 'NONE');
#204 = COLOUR_RGB ( '',0.6196078431372549211, 0.4078431372549019551, 0.2000000000000000111 ) ;
#205 = AXIS2_PLACEMENT_3D ( 'NONE', #283, #262, #279 ) ;
#206 = ORIENTED_EDGE ( 'NONE', *, *, #86, .T. ) ;
#207 = ORIENTED_EDGE ( 'NONE', *, *, #160, .T. ) ;
#208 = DIRECTION ( 'NONE',  ( -1.000000000000000000, 0.000000000000000000, 0.000000000000000000 ) ) ;
#209 = EDGE_CURVE ( 'NONE', #114, #11, #236, .T. ) ;
#210 = DIRECTION ( 'NONE',  ( -0.000000000000000000, -0.000000000000000000, -1.000000000000000000 ) ) ;
#211 = ORIENTED_EDGE ( 'NONE', *, *, #226, .F. ) ;
#212 = SURFACE_SIDE_STYLE ('',( #165 ) ) ;
#213 = LINE ( 'NONE', #130, #143 ) ;
#214 = CARTESIAN_POINT ( 'NONE',  ( 0.3124999999999999445, 9.808625322895244249E-18, -0.1562500000000000000 ) ) ;
#215 = DIRECTION ( 'NONE',  ( -1.000000000000000000, 0.000000000000000000, 0.000000000000000000 ) ) ;
#216 = CARTESIAN_POINT ( 'NONE',  ( 0.000000000000000000, -2.846158715045953731E-17, -0.1562500000000000278 ) ) ;
#217 = EDGE_CURVE ( 'NONE', #157, #137, #9, .T. ) ;
#218 = MECHANICAL_DESIGN_GEOMETRIC_PRESENTATION_REPRESENTATION (  '', ( #290 ), #14 ) ;
#219 = CIRCLE ( 'NONE', #115, 0.1880000000000000282 ) ;
#220 = CARTESIAN_POINT ( 'NONE',  ( 0.000000000000000000, -2.846158715045953731E-17, 0.09375000000000005551 ) ) ;
#221 = EDGE_CURVE ( 'NONE', #288, #6, #117, .T. ) ;
#222 = ORIENTED_EDGE ( 'NONE', *, *, #181, .T. ) ;
#223 = PRESENTATION_LAYER_ASSIGNMENT (  '', '', ( #290 ) ) ;
#224 = ORIENTED_EDGE ( 'NONE', *, *, #108, .T. ) ;
#225 = VERTEX_POINT ( 'NONE', #280 ) ;
#226 = EDGE_CURVE ( 'NONE', #225, #157, #173, .T. ) ;
#227 = EDGE_LOOP ( 'NONE', ( #222, #13 ) ) ;
#228 = CARTESIAN_POINT ( 'NONE',  ( 0.3749999999999999445, 1.746266781756620179E-17, 0.09375000000000005551 ) ) ;
#229 = DIRECTION ( 'NONE',  ( -0.000000000000000000, 0.000000000000000000, -1.000000000000000000 ) ) ;
#230 = DIRECTION ( 'NONE',  ( -0.000000000000000000, -0.000000000000000000, -1.000000000000000000 ) ) ;
#231 =( CONVERSION_BASED_UNIT ( 'INCH', #140 ) LENGTH_UNIT ( ) NAMED_UNIT ( #293 ) );
#232 = DIRECTION ( 'NONE',  ( -1.000000000000000000, 0.000000000000000000, 0.000000000000000000 ) ) ;
#233 = DIRECTION ( 'NONE',  ( -0.000000000000000000, -0.000000000000000000, -1.000000000000000000 ) ) ;
#234 = CIRCLE ( 'NONE', #33, 0.3124999999999999445 ) ;
#235 =( LENGTH_UNIT ( ) NAMED_UNIT ( * ) SI_UNIT ( $, .METRE. ) );
#236 = LINE ( 'NONE', #65, #273 ) ;
#237 = CYLINDRICAL_SURFACE ( 'NONE', #40, 0.3749999999999999445 ) ;
#238 =( CONVERSION_BASED_UNIT ( 'INCH', #194 ) LENGTH_UNIT ( ) NAMED_UNIT ( #41 ) );
#239 = SURFACE_STYLE_USAGE ( .BOTH. , #77 ) ;
#240 = DIRECTION ( 'NONE',  ( -1.000000000000000000, 0.000000000000000000, 0.000000000000000000 ) ) ;
#241 = CARTESIAN_POINT ( 'NONE',  ( 0.000000000000000000, -2.846158715045953731E-17, -0.1562500000000000278 ) ) ;
#242 = DIRECTION ( 'NONE',  ( -1.000000000000000000, 0.000000000000000000, 0.000000000000000000 ) ) ;
#243 = AXIS2_PLACEMENT_3D ( 'NONE', #71, #56, #242 ) ;
#244 = DIRECTION ( 'NONE',  ( -1.000000000000000000, 0.000000000000000000, 0.000000000000000000 ) ) ;
#245 = ORIENTED_EDGE ( 'NONE', *, *, #181, .F. ) ;
#246 = AXIS2_PLACEMENT_3D ( 'NONE', #124, #274, #193 ) ;
#247 = ORIENTED_EDGE ( 'NONE', *, *, #202, .F. ) ;
#248 = EDGE_LOOP ( 'NONE', ( #206, #153 ) ) ;
#249 = DIRECTION ( 'NONE',  ( -1.000000000000000000, 0.000000000000000000, 0.000000000000000000 ) ) ;
#250 = ORIENTED_EDGE ( 'NONE', *, *, #8, .T. ) ;
#251 = EDGE_CURVE ( 'NONE', #11, #6, #113, .T. ) ;
#252 =( LENGTH_UNIT ( ) NAMED_UNIT ( * ) SI_UNIT ( $, .METRE. ) );
#253 = VERTEX_POINT ( 'NONE', #191 ) ;
#254 = FACE_OUTER_BOUND ( 'NONE', #23, .T. ) ;
#255 = AXIS2_PLACEMENT_3D ( 'NONE', #241, #303, #197 ) ;
#256 = CARTESIAN_POINT ( 'NONE',  ( 0.000000000000000000, -2.846158715045953731E-17, 0.09375000000000005551 ) ) ;
#257 = FILL_AREA_STYLE_COLOUR ( '', #296 ) ;
#258 = CARTESIAN_POINT ( 'NONE',  ( 0.000000000000000000, -2.846158715045953731E-17, 0.09375000000000005551 ) ) ;
#259 =( NAMED_UNIT ( * ) PLANE_ANGLE_UNIT ( ) SI_UNIT ( $, .RADIAN. ) );
#260 = DIRECTION ( 'NONE',  ( -1.000000000000000000, 0.000000000000000000, 0.000000000000000000 ) ) ;
#261 = VECTOR ( 'NONE', #276, 39.37007874015748143 ) ;
#262 = DIRECTION ( 'NONE',  ( -0.000000000000000000, 0.000000000000000000, -1.000000000000000000 ) ) ;
#263 = DIRECTION ( 'NONE',  ( -0.000000000000000000, -0.000000000000000000, -1.000000000000000000 ) ) ;
#264 = ORIENTED_EDGE ( 'NONE', *, *, #59, .T. ) ;
#265 = ORIENTED_EDGE ( 'NONE', *, *, #43, .F. ) ;
#266 = ADVANCED_FACE ( 'NONE', ( #302, #49 ), #125, .T. ) ;
#267 = DIRECTION ( 'NONE',  ( -0.000000000000000000, -0.000000000000000000, -1.000000000000000000 ) ) ;
#268 = ORIENTED_EDGE ( 'NONE', *, *, #43, .T. ) ;
#269 = CARTESIAN_POINT ( 'NONE',  ( 0.000000000000000000, -2.846158715045953731E-17, 0.1562500000000000833 ) ) ;
#270 = DIRECTION ( 'NONE',  ( -1.000000000000000000, 0.000000000000000000, 0.000000000000000000 ) ) ;
#271 = DIRECTION ( 'NONE',  ( -1.000000000000000000, 0.000000000000000000, 0.000000000000000000 ) ) ;
#272 = ADVANCED_FACE ( 'NONE', ( #18 ), #237, .T. ) ;
#273 = VECTOR ( 'NONE', #68, 39.37007874015748143 ) ;
#274 = DIRECTION ( 'NONE',  ( -0.000000000000000000, -0.000000000000000000, -1.000000000000000000 ) ) ;
#275 = DIMENSIONAL_EXPONENTS ( 1.000000000000000000, 0.000000000000000000, 0.000000000000000000, 0.000000000000000000, 0.000000000000000000, 0.000000000000000000, 0.000000000000000000 ) ;
#276 = DIRECTION ( 'NONE',  ( -0.000000000000000000, -0.000000000000000000, -1.000000000000000000 ) ) ;
#277 = PRODUCT ( 'WCP-0996 Rev1', 'WCP-0996 Rev1', '', ( #129 ) ) ;
#278 = ORIENTED_EDGE ( 'NONE', *, *, #251, .T. ) ;
#279 = DIRECTION ( 'NONE',  ( -1.000000000000000000, 0.000000000000000000, 0.000000000000000000 ) ) ;
#280 = CARTESIAN_POINT ( 'NONE',  ( 0.3124999999999999445, 9.808625322895244249E-18, 0.09375000000000005551 ) ) ;
#281 = CARTESIAN_POINT ( 'NONE',  ( -0.1880000000000000282, -2.846158715045953731E-17, 0.1562500000000000000 ) ) ;
#282 = DIRECTION ( 'NONE',  ( -0.000000000000000000, -0.000000000000000000, -1.000000000000000000 ) ) ;
#283 = CARTESIAN_POINT ( 'NONE',  ( 0.000000000000000000, 0.3124999999999999445, -0.1562500000000000833 ) ) ;
#284 = DIRECTION ( 'NONE',  ( 0.000000000000000000, 0.000000000000000000, 1.000000000000000000 ) ) ;
#285 = AXIS2_PLACEMENT_3D ( 'NONE', #269, #64, #141 ) ;
#286 = CARTESIAN_POINT ( 'NONE',  ( 0.000000000000000000, -2.846158715045953731E-17, 0.1562500000000000000 ) ) ;
#287 = ORIENTED_EDGE ( 'NONE', *, *, #226, .T. ) ;
#288 = VERTEX_POINT ( 'NONE', #161 ) ;
#289 = ORIENTED_EDGE ( 'NONE', *, *, #86, .F. ) ;
#290 = STYLED_ITEM ( 'NONE', ( #75 ), #101 ) ;
#291 = CIRCLE ( 'NONE', #133, 0.3124999999999999445 ) ;
#292 = CARTESIAN_POINT ( 'NONE',  ( -0.1880000000000000282, -2.846158715045953731E-17, -0.1562500000000000000 ) ) ;
#293 = DIMENSIONAL_EXPONENTS ( 1.000000000000000000, 0.000000000000000000, 0.000000000000000000, 0.000000000000000000, 0.000000000000000000, 0.000000000000000000, 0.000000000000000000 ) ;
#294 = ORIENTED_EDGE ( 'NONE', *, *, #251, .F. ) ;
#295 = CYLINDRICAL_SURFACE ( 'NONE', #21, 0.3124999999999999445 ) ;
#296 = COLOUR_RGB ( '',0.6196078431372549211, 0.4078431372549019551, 0.2000000000000000111 ) ;
#297 = CIRCLE ( 'NONE', #285, 0.3749999999999999445 ) ;
#298 = APPLICATION_PROTOCOL_DEFINITION ( 'draft international standard', 'automotive_design', 1998, #201 ) ;
#299 = DIRECTION ( 'NONE',  ( -0.000000000000000000, -0.000000000000000000, -1.000000000000000000 ) ) ;
#300 = SURFACE_STYLE_USAGE ( .BOTH. , #212 ) ;
#301 = CYLINDRICAL_SURFACE ( 'NONE', #32, 0.3124999999999999445 ) ;
#302 = FACE_OUTER_BOUND ( 'NONE', #142, .T. ) ;
#303 = DIRECTION ( 'NONE',  ( -0.000000000000000000, -0.000000000000000000, -1.000000000000000000 ) ) ;
ENDSEC;
END-ISO-10303-21;
