ISO-10303-21;
HEADER;
FILE_DESCRIPTION (( 'STEP AP214' ),
    '1' );
FILE_NAME ('WCP-0995 Rev1.step',
    '2023-12-22T21:48:10',
    ( '' ),
    ( '' ),
    'SwSTEP 2.0',
    'SolidWorks 2022',
    '' );
FILE_SCHEMA (( 'AUTOMOTIVE_DESIGN' ));
ENDSEC;

DATA;
#1 = CARTESIAN_POINT ( 'NONE',  ( 0.000000000000000000, -2.846158715045951882E-17, -0.1562499999999999722 ) ) ;
#2 = CARTESIAN_POINT ( 'NONE',  ( 0.000000000000000000, -2.846158715045951882E-17, 0.1562499999999999445 ) ) ;
#3 = DIRECTION ( 'NONE',  ( -0.000000000000000000, 0.000000000000000000, -1.000000000000000000 ) ) ;
#4 = ADVANCED_FACE ( 'NONE', ( #78 ), #101, .F. ) ;
#5 = CARTESIAN_POINT ( 'NONE',  ( 0.000000000000000000, 0.1249999999999999584, 0.1562499999999999445 ) ) ;
#6 = DIRECTION ( 'NONE',  ( -1.000000000000000000, 0.000000000000000000, 0.000000000000000000 ) ) ;
#7 = EDGE_CURVE ( 'NONE', #273, #10, #288, .T. ) ;
#8 = ORIENTED_EDGE ( 'NONE', *, *, #257, .F. ) ;
#9 = VECTOR ( 'NONE', #165, 39.37007874015748143 ) ;
#10 = VERTEX_POINT ( 'NONE', #82 ) ;
#11 = VERTEX_POINT ( 'NONE', #77 ) ;
#12 = DIRECTION ( 'NONE',  ( 1.000000000000000000, 0.000000000000000000, 0.000000000000000000 ) ) ;
#13 = EDGE_CURVE ( 'NONE', #243, #30, #182, .T. ) ;
#14 = ORIENTED_EDGE ( 'NONE', *, *, #244, .F. ) ;
#15 = CIRCLE ( 'NONE', #160, 0.1250000000000000000 ) ;
#16 = CARTESIAN_POINT ( 'NONE',  ( 0.2500000000000000555, 2.154582828224317134E-18, -0.1562500000000000000 ) ) ;
#17 = DIRECTION ( 'NONE',  ( -0.000000000000000000, -0.000000000000000000, -1.000000000000000000 ) ) ;
#18 = CYLINDRICAL_SURFACE ( 'NONE', #215, 0.3125000000000000000 ) ;
#19 = DIRECTION ( 'NONE',  ( -0.000000000000000000, -0.000000000000000000, -1.000000000000000000 ) ) ;
#20 = DIRECTION ( 'NONE',  ( -1.000000000000000000, 0.000000000000000000, 0.000000000000000000 ) ) ;
#21 = DIRECTION ( 'NONE',  ( -1.000000000000000000, 0.000000000000000000, 0.000000000000000000 ) ) ;
#22 = DIRECTION ( 'NONE',  ( -0.000000000000000000, -0.000000000000000000, -1.000000000000000000 ) ) ;
#23 = VECTOR ( 'NONE', #19, 39.37007874015748143 ) ;
#24 = EDGE_LOOP ( 'NONE', ( #247, #290 ) ) ;
#25 = DIMENSIONAL_EXPONENTS ( 1.000000000000000000, 0.000000000000000000, 0.000000000000000000, 0.000000000000000000, 0.000000000000000000, 0.000000000000000000, 0.000000000000000000 ) ;
#26 = DIRECTION ( 'NONE',  ( -1.000000000000000000, 0.000000000000000000, 0.000000000000000000 ) ) ;
#27 = FACE_BOUND ( 'NONE', #188, .T. ) ;
#28 = UNCERTAINTY_MEASURE_WITH_UNIT (LENGTH_MEASURE( 1.000000000000000082E-05 ), #47, 'distance_accuracy_value', 'NONE');
#29 = DIRECTION ( 'NONE',  ( -0.000000000000000000, -0.000000000000000000, -1.000000000000000000 ) ) ;
#30 = VERTEX_POINT ( 'NONE', #33 ) ;
#31 = CLOSED_SHELL ( 'NONE', ( #54, #79, #38, #289, #4, #296, #60, #108, #67 ) ) ;
#32 = CIRCLE ( 'NONE', #205, 0.2500000000000000555 ) ;
#33 = CARTESIAN_POINT ( 'NONE',  ( 0.2500000000000000555, 2.154582828224317134E-18, -0.1562500000000000000 ) ) ;
#34 = DIRECTION ( 'NONE',  ( -1.000000000000000000, 0.000000000000000000, 0.000000000000000000 ) ) ;
#35 = ORIENTED_EDGE ( 'NONE', *, *, #138, .T. ) ;
#36 = MECHANICAL_DESIGN_GEOMETRIC_PRESENTATION_REPRESENTATION (  '', ( #140 ), #226 ) ;
#37 = EDGE_LOOP ( 'NONE', ( #147, #124 ) ) ;
#38 = ADVANCED_FACE ( 'NONE', ( #287 ), #45, .F. ) ;
#39 =( LENGTH_UNIT ( ) NAMED_UNIT ( * ) SI_UNIT ( $, .METRE. ) );
#40 = ORIENTED_EDGE ( 'NONE', *, *, #75, .F. ) ;
#41 = CARTESIAN_POINT ( 'NONE',  ( 0.000000000000000000, -2.846158715045951882E-17, -0.1562500000000000000 ) ) ;
#42 = COLOUR_RGB ( '',0.6196078431372549211, 0.4078431372549019551, 0.2000000000000000111 ) ;
#43 = SURFACE_STYLE_USAGE ( .BOTH. , #88 ) ;
#44 = CARTESIAN_POINT ( 'NONE',  ( 0.000000000000000000, -2.846158715045951882E-17, -0.1562500000000000000 ) ) ;
#45 = CYLINDRICAL_SURFACE ( 'NONE', #153, 0.1250000000000000000 ) ;
#46 = DIRECTION ( 'NONE',  ( -0.000000000000000000, -0.000000000000000000, -1.000000000000000000 ) ) ;
#47 =( CONVERSION_BASED_UNIT ( 'INCH', #163 ) LENGTH_UNIT ( ) NAMED_UNIT ( #212 ) );
#48 = AXIS2_PLACEMENT_3D ( 'NONE', #281, #239, #190 ) ;
#49 = EDGE_CURVE ( 'NONE', #55, #11, #136, .T. ) ;
#50 = CARTESIAN_POINT ( 'NONE',  ( -0.2500000000000000555, -2.846158715045951882E-17, -0.1562500000000000000 ) ) ;
#51 = CARTESIAN_POINT ( 'NONE',  ( -0.2500000000000000555, -2.846158715045951882E-17, -0.1562500000000000000 ) ) ;
#52 = ORIENTED_EDGE ( 'NONE', *, *, #85, .F. ) ;
#53 = CIRCLE ( 'NONE', #229, 0.3124999999999999445 ) ;
#54 = ADVANCED_FACE ( 'NONE', ( #206 ), #278, .T. ) ;
#55 = VERTEX_POINT ( 'NONE', #210 ) ;
#56 = SURFACE_STYLE_USAGE ( .BOTH. , #246 ) ;
#57 = ORIENTED_EDGE ( 'NONE', *, *, #134, .F. ) ;
#58 = SHAPE_DEFINITION_REPRESENTATION ( #150, #156 ) ;
#59 = ORIENTED_EDGE ( 'NONE', *, *, #200, .T. ) ;
#60 = ADVANCED_FACE ( 'NONE', ( #228 ), #87, .T. ) ;
#61 = ORIENTED_EDGE ( 'NONE', *, *, #75, .T. ) ;
#62 = ORIENTED_EDGE ( 'NONE', *, *, #268, .T. ) ;
#63 = DIRECTION ( 'NONE',  ( -1.000000000000000000, 0.000000000000000000, 0.000000000000000000 ) ) ;
#64 = CARTESIAN_POINT ( 'NONE',  ( 0.000000000000000000, -2.846158715045951882E-17, 0.1562500000000000000 ) ) ;
#65 = DIRECTION ( 'NONE',  ( -1.000000000000000000, 0.000000000000000000, 0.000000000000000000 ) ) ;
#66 = DIRECTION ( 'NONE',  ( -1.000000000000000000, 0.000000000000000000, 0.000000000000000000 ) ) ;
#67 = ADVANCED_FACE ( 'NONE', ( #300 ), #176, .T. ) ;
#68 = VECTOR ( 'NONE', #22, 39.37007874015748143 ) ;
#69 = DIRECTION ( 'NONE',  ( -0.000000000000000000, 0.000000000000000000, -1.000000000000000000 ) ) ;
#70 = AXIS2_PLACEMENT_3D ( 'NONE', #154, #69, #248 ) ;
#71 = LENGTH_MEASURE_WITH_UNIT ( LENGTH_MEASURE( 0.02539999999999999897 ), #276 );
#72 = EDGE_CURVE ( 'NONE', #30, #243, #32, .T. ) ;
#73 = DIRECTION ( 'NONE',  ( -1.000000000000000000, 0.000000000000000000, 0.000000000000000000 ) ) ;
#74 = DIRECTION ( 'NONE',  ( -0.000000000000000000, -0.000000000000000000, -1.000000000000000000 ) ) ;
#75 = EDGE_CURVE ( 'NONE', #172, #242, #98, .T. ) ;
#76 = FILL_AREA_STYLE ('',( #197 ) ) ;
#77 = CARTESIAN_POINT ( 'NONE',  ( -0.3125000000000000000, -2.846158715045951882E-17, 0.1562499999999999445 ) ) ;
#78 = FACE_OUTER_BOUND ( 'NONE', #198, .T. ) ;
#79 = ADVANCED_FACE ( 'NONE', ( #227 ), #18, .T. ) ;
#80 = ORIENTED_EDGE ( 'NONE', *, *, #257, .T. ) ;
#81 =( NAMED_UNIT ( * ) SI_UNIT ( $, .STERADIAN. ) SOLID_ANGLE_UNIT ( ) );
#82 = CARTESIAN_POINT ( 'NONE',  ( -0.2500000000000000555, -2.846158715045951882E-17, 0.09375000000000005551 ) ) ;
#83 = EDGE_LOOP ( 'NONE', ( #272, #102, #35, #57 ) ) ;
#84 = FILL_AREA_STYLE_COLOUR ( '', #42 ) ;
#85 = EDGE_CURVE ( 'NONE', #234, #245, #15, .T. ) ;
#86 = AXIS2_PLACEMENT_3D ( 'NONE', #119, #260, #73 ) ;
#87 = CYLINDRICAL_SURFACE ( 'NONE', #254, 0.3125000000000000000 ) ;
#88 = SURFACE_SIDE_STYLE ('',( #251 ) ) ;
#89 = FACE_OUTER_BOUND ( 'NONE', #222, .T. ) ;
#90 = CARTESIAN_POINT ( 'NONE',  ( 0.000000000000000000, 0.2500000000000000000, -0.1562500000000000000 ) ) ;
#91 =( NAMED_UNIT ( * ) PLANE_ANGLE_UNIT ( ) SI_UNIT ( $, .RADIAN. ) );
#92 = CARTESIAN_POINT ( 'NONE',  ( 0.000000000000000000, -2.846158715045951882E-17, 0.09375000000000002776 ) ) ;
#93 = CIRCLE ( 'NONE', #86, 0.1250000000000000000 ) ;
#94 = DIRECTION ( 'NONE',  ( 0.000000000000000000, 0.000000000000000000, 1.000000000000000000 ) ) ;
#95 = ORIENTED_EDGE ( 'NONE', *, *, #250, .F. ) ;
#96 = PRODUCT_CONTEXT ( 'NONE', #111, 'mechanical' ) ;
#97 = CARTESIAN_POINT ( 'NONE',  ( 0.000000000000000000, -2.846158715045951882E-17, -0.1562500000000000000 ) ) ;
#98 = CIRCLE ( 'NONE', #161, 0.1250000000000000000 ) ;
#99 = DIRECTION ( 'NONE',  ( -0.000000000000000000, -0.000000000000000000, -1.000000000000000000 ) ) ;
#100 = PRESENTATION_STYLE_ASSIGNMENT (( #56 ) ) ;
#101 = CYLINDRICAL_SURFACE ( 'NONE', #179, 0.1250000000000000000 ) ;
#102 = ORIENTED_EDGE ( 'NONE', *, *, #49, .T. ) ;
#103 = PRESENTATION_LAYER_ASSIGNMENT (  '', '', ( #302 ) ) ;
#104 = CIRCLE ( 'NONE', #142, 0.3124999999999999445 ) ;
#105 = DIRECTION ( 'NONE',  ( -0.000000000000000000, -0.000000000000000000, -1.000000000000000000 ) ) ;
#106 = CARTESIAN_POINT ( 'NONE',  ( 0.000000000000000000, -2.846158715045951882E-17, -0.1562500000000000000 ) ) ;
#107 = DIRECTION ( 'NONE',  ( -0.000000000000000000, -0.000000000000000000, -1.000000000000000000 ) ) ;
#108 = ADVANCED_FACE ( 'NONE', ( #89, #135 ), #279, .T. ) ;
#109 = FILL_AREA_STYLE ('',( #84 ) ) ;
#110 = DIRECTION ( 'NONE',  ( -1.000000000000000000, 0.000000000000000000, 0.000000000000000000 ) ) ;
#111 = APPLICATION_CONTEXT ( 'automotive_design' ) ;
#112 = CARTESIAN_POINT ( 'NONE',  ( 0.1250000000000000000, -1.315350216111760219E-17, -0.1562500000000000000 ) ) ;
#113 = ORIENTED_EDGE ( 'NONE', *, *, #72, .F. ) ;
#114 = CARTESIAN_POINT ( 'NONE',  ( 0.3125000000000000000, 9.808625322895270442E-18, -0.1562500000000000000 ) ) ;
#115 = ORIENTED_EDGE ( 'NONE', *, *, #187, .F. ) ;
#116 = CARTESIAN_POINT ( 'NONE',  ( -0.1250000000000000000, -2.846158715045951882E-17, -0.1562500000000000000 ) ) ;
#117 = DIRECTION ( 'NONE',  ( -1.000000000000000000, 0.000000000000000000, 0.000000000000000000 ) ) ;
#118 = AXIS2_PLACEMENT_3D ( 'NONE', #292, #151, #6 ) ;
#119 = CARTESIAN_POINT ( 'NONE',  ( 0.000000000000000000, -2.846158715045951882E-17, 0.1562500000000000000 ) ) ;
#120 = EDGE_CURVE ( 'NONE', #273, #30, #274, .T. ) ;
#121 = AXIS2_PLACEMENT_3D ( 'NONE', #90, #3, #191 ) ;
#122 = LENGTH_MEASURE_WITH_UNIT ( LENGTH_MEASURE( 0.02539999999999999897 ), #39 );
#123 = VERTEX_POINT ( 'NONE', #297 ) ;
#124 = ORIENTED_EDGE ( 'NONE', *, *, #7, .F. ) ;
#125 = CARTESIAN_POINT ( 'NONE',  ( 0.000000000000000000, 0.000000000000000000, 0.000000000000000000 ) ) ;
#126 = EDGE_LOOP ( 'NONE', ( #95, #62, #220, #115 ) ) ;
#127 = AXIS2_PLACEMENT_3D ( 'NONE', #1, #166, #21 ) ;
#128 = ORIENTED_EDGE ( 'NONE', *, *, #250, .T. ) ;
#129 = EDGE_LOOP ( 'NONE', ( #61, #128 ) ) ;
#130 = APPLICATION_CONTEXT ( 'automotive_design' ) ;
#131 = CARTESIAN_POINT ( 'NONE',  ( 0.000000000000000000, -2.846158715045951882E-17, -0.1562499999999999722 ) ) ;
#132 = PRESENTATION_STYLE_ASSIGNMENT (( #43 ) ) ;
#133 = DIRECTION ( 'NONE',  ( -0.000000000000000000, -0.000000000000000000, -1.000000000000000000 ) ) ;
#134 = EDGE_CURVE ( 'NONE', #123, #194, #104, .T. ) ;
#135 = FACE_BOUND ( 'NONE', #37, .T. ) ;
#136 = CIRCLE ( 'NONE', #203, 0.3125000000000000000 ) ;
#137 = DIRECTION ( 'NONE',  ( -0.000000000000000000, -0.000000000000000000, -1.000000000000000000 ) ) ;
#138 = EDGE_CURVE ( 'NONE', #11, #194, #152, .T. ) ;
#139 = PRODUCT_DEFINITION_CONTEXT ( 'detailed design', #130, 'design' ) ;
#140 = STYLED_ITEM ( 'NONE', ( #100 ), #156 ) ;
#141 = FACE_OUTER_BOUND ( 'NONE', #224, .T. ) ;
#142 = AXIS2_PLACEMENT_3D ( 'NONE', #208, #174, #65 ) ;
#143 = APPLICATION_PROTOCOL_DEFINITION ( 'draft international standard', 'automotive_design', 1998, #130 ) ;
#144 = ORIENTED_EDGE ( 'NONE', *, *, #120, .F. ) ;
#145 = APPLICATION_PROTOCOL_DEFINITION ( 'draft international standard', 'automotive_design', 1998, #111 ) ;
#146 = ORIENTED_EDGE ( 'NONE', *, *, #13, .F. ) ;
#147 = ORIENTED_EDGE ( 'NONE', *, *, #200, .F. ) ;
#148 = SURFACE_STYLE_FILL_AREA ( #76 ) ;
#149 = ORIENTED_EDGE ( 'NONE', *, *, #268, .F. ) ;
#150 = PRODUCT_DEFINITION_SHAPE ( 'NONE', 'NONE',  #265 ) ;
#151 = DIRECTION ( 'NONE',  ( -0.000000000000000000, -0.000000000000000000, -1.000000000000000000 ) ) ;
#152 = LINE ( 'NONE', #158, #266 ) ;
#153 = AXIS2_PLACEMENT_3D ( 'NONE', #253, #173, #66 ) ;
#154 = CARTESIAN_POINT ( 'NONE',  ( 0.000000000000000000, 0.3124999999999999445, 0.09375000000000002776 ) ) ;
#155 = MANIFOLD_SOLID_BREP ( 'Revolve1', #31 ) ;
#156 = ADVANCED_BREP_SHAPE_REPRESENTATION ( 'WCP-0995 Rev1', ( #155, #189 ), #164 ) ;
#157 = PRODUCT ( 'WCP-0995 Rev1', 'WCP-0995 Rev1', '', ( #96 ) ) ;
#158 = CARTESIAN_POINT ( 'NONE',  ( -0.3125000000000000000, -2.846158715045951882E-17, -0.1562500000000000000 ) ) ;
#159 = DIRECTION ( 'NONE',  ( -1.000000000000000000, 0.000000000000000000, 0.000000000000000000 ) ) ;
#160 = AXIS2_PLACEMENT_3D ( 'NONE', #131, #107, #301 ) ;
#161 = AXIS2_PLACEMENT_3D ( 'NONE', #64, #137, #231 ) ;
#162 = DIRECTION ( 'NONE',  ( -0.000000000000000000, -0.000000000000000000, -1.000000000000000000 ) ) ;
#163 = LENGTH_MEASURE_WITH_UNIT ( LENGTH_MEASURE( 0.02539999999999999897 ), #183 );
#164 =( GEOMETRIC_REPRESENTATION_CONTEXT ( 3 ) GLOBAL_UNCERTAINTY_ASSIGNED_CONTEXT ( ( #28 ) ) GLOBAL_UNIT_ASSIGNED_CONTEXT ( ( #47, #193, #81 ) ) REPRESENTATION_CONTEXT ( 'NONE', 'WORKASPACE' ) );
#165 = DIRECTION ( 'NONE',  ( -0.000000000000000000, -0.000000000000000000, -1.000000000000000000 ) ) ;
#166 = DIRECTION ( 'NONE',  ( -0.000000000000000000, -0.000000000000000000, -1.000000000000000000 ) ) ;
#167 = ORIENTED_EDGE ( 'NONE', *, *, #7, .T. ) ;
#168 = ORIENTED_EDGE ( 'NONE', *, *, #241, .F. ) ;
#169 = ORIENTED_EDGE ( 'NONE', *, *, #218, .T. ) ;
#170 = ORIENTED_EDGE ( 'NONE', *, *, #85, .T. ) ;
#171 = CARTESIAN_POINT ( 'NONE',  ( 0.000000000000000000, -2.846158715045951882E-17, -0.1562500000000000000 ) ) ;
#172 = VERTEX_POINT ( 'NONE', #298 ) ;
#173 = DIRECTION ( 'NONE',  ( -0.000000000000000000, -0.000000000000000000, -1.000000000000000000 ) ) ;
#174 = DIRECTION ( 'NONE',  ( -0.000000000000000000, -0.000000000000000000, -1.000000000000000000 ) ) ;
#175 = CIRCLE ( 'NONE', #48, 0.2500000000000000555 ) ;
#176 = CYLINDRICAL_SURFACE ( 'NONE', #293, 0.2500000000000000555 ) ;
#177 = CARTESIAN_POINT ( 'NONE',  ( 0.000000000000000000, -2.846158715045951882E-17, 0.1562499999999999445 ) ) ;
#178 = DIRECTION ( 'NONE',  ( -0.000000000000000000, -0.000000000000000000, -1.000000000000000000 ) ) ;
#179 = AXIS2_PLACEMENT_3D ( 'NONE', #97, #201, #269 ) ;
#180 = EDGE_CURVE ( 'NONE', #11, #55, #195, .T. ) ;
#181 = COLOUR_RGB ( '',0.6196078431372549211, 0.4078431372549019551, 0.2000000000000000111 ) ;
#182 = CIRCLE ( 'NONE', #240, 0.2500000000000000555 ) ;
#183 =( LENGTH_UNIT ( ) NAMED_UNIT ( * ) SI_UNIT ( $, .METRE. ) );
#184 = EDGE_LOOP ( 'NONE', ( #204, #169, #168, #264 ) ) ;
#185 = LINE ( 'NONE', #116, #9 ) ;
#186 = CARTESIAN_POINT ( 'NONE',  ( 0.1250000000000000000, -1.315350216111760219E-17, 0.1562500000000000000 ) ) ;
#187 = EDGE_CURVE ( 'NONE', #172, #234, #185, .T. ) ;
#188 = EDGE_LOOP ( 'NONE', ( #52, #14 ) ) ;
#189 = AXIS2_PLACEMENT_3D ( 'NONE', #125, #270, #12 ) ;
#190 = DIRECTION ( 'NONE',  ( -1.000000000000000000, 0.000000000000000000, 0.000000000000000000 ) ) ;
#191 = DIRECTION ( 'NONE',  ( -1.000000000000000000, 0.000000000000000000, 0.000000000000000000 ) ) ;
#192 = UNCERTAINTY_MEASURE_WITH_UNIT (LENGTH_MEASURE( 1.000000000000000082E-05 ), #232, 'distance_accuracy_value', 'NONE');
#193 =( NAMED_UNIT ( * ) PLANE_ANGLE_UNIT ( ) SI_UNIT ( $, .RADIAN. ) );
#194 = VERTEX_POINT ( 'NONE', #233 ) ;
#195 = CIRCLE ( 'NONE', #280, 0.3125000000000000000 ) ;
#196 = ORIENTED_EDGE ( 'NONE', *, *, #134, .T. ) ;
#197 = FILL_AREA_STYLE_COLOUR ( '', #181 ) ;
#198 = EDGE_LOOP ( 'NONE', ( #149, #40, #291, #170 ) ) ;
#199 =( CONVERSION_BASED_UNIT ( 'INCH', #122 ) LENGTH_UNIT ( ) NAMED_UNIT ( #25 ) );
#200 = EDGE_CURVE ( 'NONE', #10, #273, #175, .T. ) ;
#201 = DIRECTION ( 'NONE',  ( -0.000000000000000000, -0.000000000000000000, -1.000000000000000000 ) ) ;
#202 =( NAMED_UNIT ( * ) PLANE_ANGLE_UNIT ( ) SI_UNIT ( $, .RADIAN. ) );
#203 = AXIS2_PLACEMENT_3D ( 'NONE', #177, #105, #299 ) ;
#204 = ORIENTED_EDGE ( 'NONE', *, *, #180, .T. ) ;
#205 = AXIS2_PLACEMENT_3D ( 'NONE', #277, #46, #209 ) ;
#206 = FACE_OUTER_BOUND ( 'NONE', #271, .T. ) ;
#207 = DIRECTION ( 'NONE',  ( -0.000000000000000000, -0.000000000000000000, -1.000000000000000000 ) ) ;
#208 = CARTESIAN_POINT ( 'NONE',  ( 0.000000000000000000, -2.846158715045951882E-17, 0.09375000000000002776 ) ) ;
#209 = DIRECTION ( 'NONE',  ( -1.000000000000000000, 0.000000000000000000, 0.000000000000000000 ) ) ;
#210 = CARTESIAN_POINT ( 'NONE',  ( 0.3125000000000000000, 9.808625322895270442E-18, 0.1562499999999999445 ) ) ;
#211 = PRODUCT_RELATED_PRODUCT_CATEGORY ( 'part', '', ( #157 ) ) ;
#212 = DIMENSIONAL_EXPONENTS ( 1.000000000000000000, 0.000000000000000000, 0.000000000000000000, 0.000000000000000000, 0.000000000000000000, 0.000000000000000000, 0.000000000000000000 ) ;
#213 = CARTESIAN_POINT ( 'NONE',  ( -0.1250000000000000000, -2.846158715045951882E-17, -0.1562499999999999722 ) ) ;
#214 = PLANE ( 'NONE',  #121 ) ;
#215 = AXIS2_PLACEMENT_3D ( 'NONE', #44, #17, #20 ) ;
#216 = PLANE ( 'NONE',  #294 ) ;
#217 = LINE ( 'NONE', #112, #255 ) ;
#218 = EDGE_CURVE ( 'NONE', #55, #123, #285, .T. ) ;
#219 =( NAMED_UNIT ( * ) SI_UNIT ( $, .STERADIAN. ) SOLID_ANGLE_UNIT ( ) );
#220 = ORIENTED_EDGE ( 'NONE', *, *, #244, .T. ) ;
#221 = CIRCLE ( 'NONE', #127, 0.1250000000000000000 ) ;
#222 = EDGE_LOOP ( 'NONE', ( #267, #196 ) ) ;
#223 = ORIENTED_EDGE ( 'NONE', *, *, #120, .T. ) ;
#224 = EDGE_LOOP ( 'NONE', ( #258, #284 ) ) ;
#225 = CARTESIAN_POINT ( 'NONE',  ( 0.000000000000000000, -2.846158715045951882E-17, -0.1562500000000000000 ) ) ;
#226 =( GEOMETRIC_REPRESENTATION_CONTEXT ( 3 ) GLOBAL_UNCERTAINTY_ASSIGNED_CONTEXT ( ( #259 ) ) GLOBAL_UNIT_ASSIGNED_CONTEXT ( ( #199, #202, #219 ) ) REPRESENTATION_CONTEXT ( 'NONE', 'WORKASPACE' ) );
#227 = FACE_OUTER_BOUND ( 'NONE', #184, .T. ) ;
#228 = FACE_OUTER_BOUND ( 'NONE', #83, .T. ) ;
#229 = AXIS2_PLACEMENT_3D ( 'NONE', #92, #74, #117 ) ;
#230 = PRODUCT_DEFINITION_FORMATION_WITH_SPECIFIED_SOURCE ( 'ANY', '', #157, .NOT_KNOWN. ) ;
#231 = DIRECTION ( 'NONE',  ( -1.000000000000000000, 0.000000000000000000, 0.000000000000000000 ) ) ;
#232 =( CONVERSION_BASED_UNIT ( 'INCH', #71 ) LENGTH_UNIT ( ) NAMED_UNIT ( #237 ) );
#233 = CARTESIAN_POINT ( 'NONE',  ( -0.3124999999999999445, -2.846158715045951882E-17, 0.09375000000000002776 ) ) ;
#234 = VERTEX_POINT ( 'NONE', #213 ) ;
#235 = AXIS2_PLACEMENT_3D ( 'NONE', #225, #207, #110 ) ;
#236 = FACE_BOUND ( 'NONE', #129, .T. ) ;
#237 = DIMENSIONAL_EXPONENTS ( 1.000000000000000000, 0.000000000000000000, 0.000000000000000000, 0.000000000000000000, 0.000000000000000000, 0.000000000000000000, 0.000000000000000000 ) ;
#238 = CARTESIAN_POINT ( 'NONE',  ( 0.2500000000000000555, 2.154582828224317134E-18, 0.09375000000000005551 ) ) ;
#239 = DIRECTION ( 'NONE',  ( -0.000000000000000000, -0.000000000000000000, -1.000000000000000000 ) ) ;
#240 = AXIS2_PLACEMENT_3D ( 'NONE', #171, #99, #34 ) ;
#241 = EDGE_CURVE ( 'NONE', #194, #123, #53, .T. ) ;
#242 = VERTEX_POINT ( 'NONE', #186 ) ;
#243 = VERTEX_POINT ( 'NONE', #50 ) ;
#244 = EDGE_CURVE ( 'NONE', #245, #234, #221, .T. ) ;
#245 = VERTEX_POINT ( 'NONE', #263 ) ;
#246 = SURFACE_SIDE_STYLE ('',( #148 ) ) ;
#247 = ORIENTED_EDGE ( 'NONE', *, *, #13, .T. ) ;
#248 = DIRECTION ( 'NONE',  ( -1.000000000000000000, 0.000000000000000000, 0.000000000000000000 ) ) ;
#249 =( GEOMETRIC_REPRESENTATION_CONTEXT ( 3 ) GLOBAL_UNCERTAINTY_ASSIGNED_CONTEXT ( ( #192 ) ) GLOBAL_UNIT_ASSIGNED_CONTEXT ( ( #232, #91, #283 ) ) REPRESENTATION_CONTEXT ( 'NONE', 'WORKASPACE' ) );
#250 = EDGE_CURVE ( 'NONE', #242, #172, #93, .T. ) ;
#251 = SURFACE_STYLE_FILL_AREA ( #109 ) ;
#252 = DIRECTION ( 'NONE',  ( -0.000000000000000000, -0.000000000000000000, -1.000000000000000000 ) ) ;
#253 = CARTESIAN_POINT ( 'NONE',  ( 0.000000000000000000, -2.846158715045951882E-17, -0.1562500000000000000 ) ) ;
#254 = AXIS2_PLACEMENT_3D ( 'NONE', #106, #178, #63 ) ;
#255 = VECTOR ( 'NONE', #162, 39.37007874015748143 ) ;
#256 = FACE_OUTER_BOUND ( 'NONE', #24, .T. ) ;
#257 = EDGE_CURVE ( 'NONE', #10, #243, #282, .T. ) ;
#258 = ORIENTED_EDGE ( 'NONE', *, *, #180, .F. ) ;
#259 = UNCERTAINTY_MEASURE_WITH_UNIT (LENGTH_MEASURE( 1.000000000000000082E-05 ), #199, 'distance_accuracy_value', 'NONE');
#260 = DIRECTION ( 'NONE',  ( -0.000000000000000000, -0.000000000000000000, -1.000000000000000000 ) ) ;
#261 = VECTOR ( 'NONE', #262, 39.37007874015748143 ) ;
#262 = DIRECTION ( 'NONE',  ( -0.000000000000000000, -0.000000000000000000, -1.000000000000000000 ) ) ;
#263 = CARTESIAN_POINT ( 'NONE',  ( 0.1250000000000000000, -1.315350216111760219E-17, -0.1562499999999999722 ) ) ;
#264 = ORIENTED_EDGE ( 'NONE', *, *, #138, .F. ) ;
#265 = PRODUCT_DEFINITION ( 'UNKNOWN', '', #230, #139 ) ;
#266 = VECTOR ( 'NONE', #252, 39.37007874015748143 ) ;
#267 = ORIENTED_EDGE ( 'NONE', *, *, #241, .T. ) ;
#268 = EDGE_CURVE ( 'NONE', #242, #245, #217, .T. ) ;
#269 = DIRECTION ( 'NONE',  ( -1.000000000000000000, 0.000000000000000000, 0.000000000000000000 ) ) ;
#270 = DIRECTION ( 'NONE',  ( 0.000000000000000000, 0.000000000000000000, 1.000000000000000000 ) ) ;
#271 = EDGE_LOOP ( 'NONE', ( #59, #223, #146, #8 ) ) ;
#272 = ORIENTED_EDGE ( 'NONE', *, *, #218, .F. ) ;
#273 = VERTEX_POINT ( 'NONE', #238 ) ;
#274 = LINE ( 'NONE', #16, #23 ) ;
#275 = MECHANICAL_DESIGN_GEOMETRIC_PRESENTATION_REPRESENTATION (  '', ( #302 ), #249 ) ;
#276 =( LENGTH_UNIT ( ) NAMED_UNIT ( * ) SI_UNIT ( $, .METRE. ) );
#277 = CARTESIAN_POINT ( 'NONE',  ( 0.000000000000000000, -2.846158715045951882E-17, -0.1562500000000000000 ) ) ;
#278 = CYLINDRICAL_SURFACE ( 'NONE', #235, 0.2500000000000000555 ) ;
#279 = PLANE ( 'NONE',  #70 ) ;
#280 = AXIS2_PLACEMENT_3D ( 'NONE', #2, #29, #26 ) ;
#281 = CARTESIAN_POINT ( 'NONE',  ( 0.000000000000000000, -2.846158715045951882E-17, 0.09375000000000005551 ) ) ;
#282 = LINE ( 'NONE', #51, #261 ) ;
#283 =( NAMED_UNIT ( * ) SI_UNIT ( $, .STERADIAN. ) SOLID_ANGLE_UNIT ( ) );
#284 = ORIENTED_EDGE ( 'NONE', *, *, #49, .F. ) ;
#285 = LINE ( 'NONE', #114, #68 ) ;
#286 = DIRECTION ( 'NONE',  ( 1.000000000000000000, 0.000000000000000000, -0.000000000000000000 ) ) ;
#287 = FACE_OUTER_BOUND ( 'NONE', #126, .T. ) ;
#288 = CIRCLE ( 'NONE', #118, 0.2500000000000000555 ) ;
#289 = ADVANCED_FACE ( 'NONE', ( #256, #27 ), #214, .T. ) ;
#290 = ORIENTED_EDGE ( 'NONE', *, *, #72, .T. ) ;
#291 = ORIENTED_EDGE ( 'NONE', *, *, #187, .T. ) ;
#292 = CARTESIAN_POINT ( 'NONE',  ( 0.000000000000000000, -2.846158715045951882E-17, 0.09375000000000005551 ) ) ;
#293 = AXIS2_PLACEMENT_3D ( 'NONE', #41, #133, #159 ) ;
#294 = AXIS2_PLACEMENT_3D ( 'NONE', #5, #94, #286 ) ;
#295 = EDGE_LOOP ( 'NONE', ( #144, #167, #80, #113 ) ) ;
#296 = ADVANCED_FACE ( 'NONE', ( #236, #141 ), #216, .T. ) ;
#297 = CARTESIAN_POINT ( 'NONE',  ( 0.3124999999999999445, 9.808625322895262738E-18, 0.09375000000000002776 ) ) ;
#298 = CARTESIAN_POINT ( 'NONE',  ( -0.1250000000000000000, -2.846158715045951882E-17, 0.1562500000000000000 ) ) ;
#299 = DIRECTION ( 'NONE',  ( -1.000000000000000000, 0.000000000000000000, 0.000000000000000000 ) ) ;
#300 = FACE_OUTER_BOUND ( 'NONE', #295, .T. ) ;
#301 = DIRECTION ( 'NONE',  ( -1.000000000000000000, 0.000000000000000000, 0.000000000000000000 ) ) ;
#302 = STYLED_ITEM ( 'NONE', ( #132 ), #155 ) ;
#303 = PRESENTATION_LAYER_ASSIGNMENT (  '', '', ( #140 ) ) ;
ENDSEC;
END-ISO-10303-21;
