ISO-10303-21;
HEADER;
FILE_DESCRIPTION (( 'STEP AP214' ),
    '1' );
FILE_NAME ('WCP-0961 Rev1.step',
    '2024-04-11T00:55:30',
    ( '' ),
    ( '' ),
    'SwSTEP 2.0',
    'SolidWorks 2022',
    '' );
FILE_SCHEMA (( 'AUTOMOTIVE_DESIGN' ));
ENDSEC;

DATA;
#1 = CARTESIAN_POINT ( 'NONE',  ( 0.2222798536380058976, -8.569712686068203092E-17, -1.000000000000000000 ) ) ;
#2 = CARTESIAN_POINT ( 'NONE',  ( 0.000000000000000000, 0.000000000000000000, -1.000000000000000000 ) ) ;
#3 = DIRECTION ( 'NONE',  ( 1.000000000000000000, 1.536266079084936861E-16, 0.000000000000000000 ) ) ;
#4 = VERTEX_POINT ( 'NONE', #122 ) ;
#5 = CARTESIAN_POINT ( 'NONE',  ( 0.000000000000000000, 0.000000000000000000, 1.000000000000000000 ) ) ;
#6 = EDGE_CURVE ( 'NONE', #242, #152, #150, .T. ) ;
#7 = PLANE ( 'NONE',  #143 ) ;
#8 = PRODUCT_DEFINITION ( 'UNKNOWN', '', #320, #186 ) ;
#9 = DIRECTION ( 'NONE',  ( -0.5000000000000000000, -0.8660254037844385966, 0.000000000000000000 ) ) ;
#10 = CARTESIAN_POINT ( 'NONE',  ( -0.1111399268190028655, -0.1925000000000000322, 1.000000000000000000 ) ) ;
#11 = EDGE_CURVE ( 'NONE', #146, #287, #187, .T. ) ;
#12 = CIRCLE ( 'NONE', #130, 0.3125000000000000000 ) ;
#13 = VERTEX_POINT ( 'NONE', #209 ) ;
#14 = UNCERTAINTY_MEASURE_WITH_UNIT (LENGTH_MEASURE( 1.000000000000000082E-05 ), #159, 'distance_accuracy_value', 'NONE');
#15 = ORIENTED_EDGE ( 'NONE', *, *, #160, .T. ) ;
#16 = CARTESIAN_POINT ( 'NONE',  ( 0.1111399268190030043, -0.1925000000000000044, 1.000000000000000000 ) ) ;
#17 = ORIENTED_EDGE ( 'NONE', *, *, #336, .T. ) ;
#18 = ORIENTED_EDGE ( 'NONE', *, *, #198, .F. ) ;
#19 = VERTEX_POINT ( 'NONE', #202 ) ;
#20 = ORIENTED_EDGE ( 'NONE', *, *, #174, .T. ) ;
#21 = ADVANCED_FACE ( 'NONE', ( #315 ), #178, .T. ) ;
#22 = ORIENTED_EDGE ( 'NONE', *, *, #256, .F. ) ;
#23 =( GEOMETRIC_REPRESENTATION_CONTEXT ( 3 ) GLOBAL_UNCERTAINTY_ASSIGNED_CONTEXT ( ( #14 ) ) GLOBAL_UNIT_ASSIGNED_CONTEXT ( ( #159, #238, #286 ) ) REPRESENTATION_CONTEXT ( 'NONE', 'WORKASPACE' ) );
#24 = DIRECTION ( 'NONE',  ( 0.000000000000000000, 0.000000000000000000, 1.000000000000000000 ) ) ;
#25 = DIRECTION ( 'NONE',  ( -1.000000000000000000, -3.072532158169873721E-16, 0.000000000000000000 ) ) ;
#26 = PRESENTATION_LAYER_ASSIGNMENT (  '', '', ( #58 ) ) ;
#27 = FACE_OUTER_BOUND ( 'NONE', #115, .T. ) ;
#28 = DIRECTION ( 'NONE',  ( -0.4999999999999998335, 0.8660254037844388186, 0.000000000000000000 ) ) ;
#29 = LINE ( 'NONE', #80, #165 ) ;
#30 = LINE ( 'NONE', #325, #322 ) ;
#31 = FILL_AREA_STYLE_COLOUR ( '', #213 ) ;
#32 = DIRECTION ( 'NONE',  ( 0.8660254037844387076, -0.5000000000000001110, 0.000000000000000000 ) ) ;
#33 = CARTESIAN_POINT ( 'NONE',  ( -0.2222798536380058143, 3.123263141623795767E-17, -1.000000000000000000 ) ) ;
#34 = EDGE_CURVE ( 'NONE', #241, #13, #181, .T. ) ;
#35 = LINE ( 'NONE', #141, #111 ) ;
#36 = CARTESIAN_POINT ( 'NONE',  ( -0.1111399268190028794, 0.1924999999999999212, 1.000000000000000000 ) ) ;
#37 = CIRCLE ( 'NONE', #96, 0.3125000000000000000 ) ;
#38 = LENGTH_MEASURE_WITH_UNIT ( LENGTH_MEASURE( 0.02539999999999999897 ), #157 );
#39 = CIRCLE ( 'NONE', #345, 0.3125000000000000000 ) ;
#40 = EDGE_LOOP ( 'NONE', ( #184, #268, #235, #234 ) ) ;
#41 = ORIENTED_EDGE ( 'NONE', *, *, #336, .F. ) ;
#42 = SURFACE_STYLE_USAGE ( .BOTH. , #65 ) ;
#43 = LINE ( 'NONE', #266, #63 ) ;
#44 = ORIENTED_EDGE ( 'NONE', *, *, #107, .T. ) ;
#45 = ADVANCED_FACE ( 'NONE', ( #118 ), #153, .T. ) ;
#46 = ORIENTED_EDGE ( 'NONE', *, *, #350, .T. ) ;
#47 = CARTESIAN_POINT ( 'NONE',  ( -0.1111399268190028655, -0.1925000000000000322, -1.000000000000000000 ) ) ;
#48 = EDGE_CURVE ( 'NONE', #269, #233, #43, .T. ) ;
#49 = VERTEX_POINT ( 'NONE', #341 ) ;
#50 = CARTESIAN_POINT ( 'NONE',  ( -0.2222798536380058143, 3.123263141623795767E-17, 1.000000000000000000 ) ) ;
#51 = CARTESIAN_POINT ( 'NONE',  ( 0.1111399268190029627, 0.1925000000000000044, 1.000000000000000000 ) ) ;
#52 = DIRECTION ( 'NONE',  ( 1.000000000000000000, 0.000000000000000000, 0.000000000000000000 ) ) ;
#53 = PLANE ( 'NONE',  #177 ) ;
#54 = DIRECTION ( 'NONE',  ( 1.000000000000000000, 0.000000000000000000, 0.000000000000000000 ) ) ;
#55 = MECHANICAL_DESIGN_GEOMETRIC_PRESENTATION_REPRESENTATION (  '', ( #193 ), #294 ) ;
#56 = CARTESIAN_POINT ( 'NONE',  ( 0.1111399268190030043, -0.1925000000000000044, 1.000000000000000000 ) ) ;
#57 = DIRECTION ( 'NONE',  ( 0.000000000000000000, 0.000000000000000000, 1.000000000000000000 ) ) ;
#58 = STYLED_ITEM ( 'NONE', ( #253 ), #229 ) ;
#59 = CARTESIAN_POINT ( 'NONE',  ( 0.2222798536380058976, -8.569712686068203092E-17, 1.000000000000000000 ) ) ;
#60 = EDGE_CURVE ( 'NONE', #342, #259, #125, .T. ) ;
#61 = DIRECTION ( 'NONE',  ( -0.4999999999999997224, 0.8660254037844388186, 0.000000000000000000 ) ) ;
#62 = DIRECTION ( 'NONE',  ( 1.000000000000000000, 0.000000000000000000, -0.000000000000000000 ) ) ;
#63 = VECTOR ( 'NONE', #239, 39.37007874015748854 ) ;
#64 =( NAMED_UNIT ( * ) SI_UNIT ( $, .STERADIAN. ) SOLID_ANGLE_UNIT ( ) );
#65 = SURFACE_SIDE_STYLE ('',( #147 ) ) ;
#66 = AXIS2_PLACEMENT_3D ( 'NONE', #59, #255, #84 ) ;
#67 = ORIENTED_EDGE ( 'NONE', *, *, #174, .F. ) ;
#68 = VECTOR ( 'NONE', #3, 39.37007874015748143 ) ;
#69 = EDGE_LOOP ( 'NONE', ( #312, #335 ) ) ;
#70 = DIRECTION ( 'NONE',  ( -1.000000000000000000, 0.000000000000000000, 0.000000000000000000 ) ) ;
#71 = EDGE_CURVE ( 'NONE', #4, #206, #277, .T. ) ;
#72 = ORIENTED_EDGE ( 'NONE', *, *, #11, .F. ) ;
#73 = EDGE_CURVE ( 'NONE', #287, #269, #191, .T. ) ;
#74 = VERTEX_POINT ( 'NONE', #105 ) ;
#75 = VECTOR ( 'NONE', #101, 39.37007874015748143 ) ;
#76 = ORIENTED_EDGE ( 'NONE', *, *, #104, .T. ) ;
#77 = CARTESIAN_POINT ( 'NONE',  ( 0.000000000000000000, 0.000000000000000000, 1.000000000000000000 ) ) ;
#78 = SHAPE_DEFINITION_REPRESENTATION ( #254, #121 ) ;
#79 = DIRECTION ( 'NONE',  ( -0.000000000000000000, -0.000000000000000000, -1.000000000000000000 ) ) ;
#80 = CARTESIAN_POINT ( 'NONE',  ( -0.3125000000000000000, 0.000000000000000000, 1.000000000000000000 ) ) ;
#81 = CARTESIAN_POINT ( 'NONE',  ( -0.2222798536380058143, 3.414809992080329023E-17, 1.000000000000000000 ) ) ;
#82 = DIRECTION ( 'NONE',  ( -0.000000000000000000, -0.000000000000000000, -1.000000000000000000 ) ) ;
#83 = ORIENTED_EDGE ( 'NONE', *, *, #60, .F. ) ;
#84 = DIRECTION ( 'NONE',  ( 0.4999999999999997224, -0.8660254037844388186, 0.000000000000000000 ) ) ;
#85 = VECTOR ( 'NONE', #82, 39.37007874015748143 ) ;
#86 = PRODUCT ( 'WCP-0961 Rev1', 'WCP-0961 Rev1', '', ( #236 ) ) ;
#87 = DIRECTION ( 'NONE',  ( 0.4999999999999998335, -0.8660254037844388186, 0.000000000000000000 ) ) ;
#88 = CARTESIAN_POINT ( 'NONE',  ( 0.1111399268190030043, -0.1925000000000000044, 1.000000000000000000 ) ) ;
#89 = SURFACE_STYLE_USAGE ( .BOTH. , #334 ) ;
#90 = ORIENTED_EDGE ( 'NONE', *, *, #306, .F. ) ;
#91 = CARTESIAN_POINT ( 'NONE',  ( 0.3125000000000000000, 3.827021247335478926E-17, 1.000000000000000000 ) ) ;
#92 = ORIENTED_EDGE ( 'NONE', *, *, #114, .T. ) ;
#93 = ORIENTED_EDGE ( 'NONE', *, *, #117, .T. ) ;
#94 = ORIENTED_EDGE ( 'NONE', *, *, #104, .F. ) ;
#95 = ORIENTED_EDGE ( 'NONE', *, *, #48, .F. ) ;
#96 = AXIS2_PLACEMENT_3D ( 'NONE', #173, #57, #283 ) ;
#97 = ORIENTED_EDGE ( 'NONE', *, *, #6, .F. ) ;
#98 = AXIS2_PLACEMENT_3D ( 'NONE', #247, #251, #136 ) ;
#99 = CARTESIAN_POINT ( 'NONE',  ( -0.1111399268190028794, 0.1924999999999999212, -1.000000000000000000 ) ) ;
#100 = FILL_AREA_STYLE ('',( #348 ) ) ;
#101 = DIRECTION ( 'NONE',  ( -0.000000000000000000, -0.000000000000000000, -1.000000000000000000 ) ) ;
#102 = DIRECTION ( 'NONE',  ( -0.000000000000000000, -0.000000000000000000, -1.000000000000000000 ) ) ;
#103 = EDGE_CURVE ( 'NONE', #19, #206, #158, .T. ) ;
#104 = EDGE_CURVE ( 'NONE', #146, #264, #326, .T. ) ;
#105 = CARTESIAN_POINT ( 'NONE',  ( -0.3125000000000000000, 0.000000000000000000, 1.000000000000000000 ) ) ;
#106 = DIRECTION ( 'NONE',  ( -1.000000000000000000, -3.072532158169873721E-16, 0.000000000000000000 ) ) ;
#107 = EDGE_CURVE ( 'NONE', #233, #4, #137, .T. ) ;
#108 = AXIS2_PLACEMENT_3D ( 'NONE', #313, #303, #52 ) ;
#109 = DIRECTION ( 'NONE',  ( 0.000000000000000000, 0.000000000000000000, 1.000000000000000000 ) ) ;
#110 = LINE ( 'NONE', #273, #272 ) ;
#111 = VECTOR ( 'NONE', #9, 39.37007874015748854 ) ;
#112 = DIRECTION ( 'NONE',  ( 0.000000000000000000, 0.000000000000000000, 1.000000000000000000 ) ) ;
#113 = VECTOR ( 'NONE', #327, 39.37007874015748143 ) ;
#114 = EDGE_CURVE ( 'NONE', #19, #241, #164, .T. ) ;
#115 = EDGE_LOOP ( 'NONE', ( #83, #179, #338, #20 ) ) ;
#116 = ORIENTED_EDGE ( 'NONE', *, *, #250, .F. ) ;
#117 = EDGE_CURVE ( 'NONE', #13, #264, #274, .T. ) ;
#118 = FACE_OUTER_BOUND ( 'NONE', #295, .T. ) ;
#119 = EDGE_LOOP ( 'NONE', ( #95, #290, #72, #344, #321, #22 ) ) ;
#120 = CARTESIAN_POINT ( 'NONE',  ( 0.000000000000000000, 0.000000000000000000, 0.000000000000000000 ) ) ;
#121 = ADVANCED_BREP_SHAPE_REPRESENTATION ( 'WCP-0961 Rev1', ( #229, #135 ), #23 ) ;
#122 = CARTESIAN_POINT ( 'NONE',  ( 0.2222798536380058976, -8.569712686068203092E-17, -1.000000000000000000 ) ) ;
#123 = CLOSED_SHELL ( 'NONE', ( #45, #281, #302, #169, #215, #21, #278, #207, #267, #226 ) ) ;
#124 = ORIENTED_EDGE ( 'NONE', *, *, #212, .F. ) ;
#125 = LINE ( 'NONE', #47, #171 ) ;
#126 = ORIENTED_EDGE ( 'NONE', *, *, #198, .T. ) ;
#127 = AXIS2_PLACEMENT_3D ( 'NONE', #36, #32, #142 ) ;
#128 = ORIENTED_EDGE ( 'NONE', *, *, #250, .T. ) ;
#129 = PLANE ( 'NONE',  #98 ) ;
#130 = AXIS2_PLACEMENT_3D ( 'NONE', #77, #24, #249 ) ;
#131 = DIRECTION ( 'NONE',  ( 1.000000000000000000, 0.000000000000000000, 0.000000000000000000 ) ) ;
#132 = PLANE ( 'NONE',  #330 ) ;
#133 =( NAMED_UNIT ( * ) PLANE_ANGLE_UNIT ( ) SI_UNIT ( $, .RADIAN. ) );
#134 = DIRECTION ( 'NONE',  ( -1.000000000000000000, -1.536266079084936861E-16, 0.000000000000000000 ) ) ;
#135 = AXIS2_PLACEMENT_3D ( 'NONE', #120, #201, #131 ) ;
#136 = DIRECTION ( 'NONE',  ( 1.000000000000000000, 3.072532158169873721E-16, 0.000000000000000000 ) ) ;
#137 = LINE ( 'NONE', #346, #288 ) ;
#138 = FILL_AREA_STYLE ('',( #31 ) ) ;
#139 =( NAMED_UNIT ( * ) PLANE_ANGLE_UNIT ( ) SI_UNIT ( $, .RADIAN. ) );
#140 = LENGTH_MEASURE_WITH_UNIT ( LENGTH_MEASURE( 0.02539999999999999897 ), #166 );
#141 = CARTESIAN_POINT ( 'NONE',  ( -0.1111399268190028794, 0.1924999999999999212, 1.000000000000000000 ) ) ;
#142 = DIRECTION ( 'NONE',  ( 0.5000000000000000000, 0.8660254037844385966, 0.000000000000000000 ) ) ;
#143 = AXIS2_PLACEMENT_3D ( 'NONE', #5, #109, #227 ) ;
#144 = DIMENSIONAL_EXPONENTS ( 1.000000000000000000, 0.000000000000000000, 0.000000000000000000, 0.000000000000000000, 0.000000000000000000, 0.000000000000000000, 0.000000000000000000 ) ;
#145 = ORIENTED_EDGE ( 'NONE', *, *, #34, .T. ) ;
#146 = VERTEX_POINT ( 'NONE', #81 ) ;
#147 = SURFACE_STYLE_FILL_AREA ( #100 ) ;
#148 = DIRECTION ( 'NONE',  ( -0.4999999999999998890, -0.8660254037844385966, 0.000000000000000000 ) ) ;
#149 = ORIENTED_EDGE ( 'NONE', *, *, #205, .T. ) ;
#150 = LINE ( 'NONE', #91, #339 ) ;
#151 = ORIENTED_EDGE ( 'NONE', *, *, #60, .T. ) ;
#152 = VERTEX_POINT ( 'NONE', #192 ) ;
#153 = CYLINDRICAL_SURFACE ( 'NONE', #199, 0.3125000000000000000 ) ;
#154 = EDGE_LOOP ( 'NONE', ( #151, #126, #182, #17, #93, #128 ) ) ;
#155 = DIRECTION ( 'NONE',  ( 0.000000000000000000, 0.000000000000000000, 1.000000000000000000 ) ) ;
#156 = EDGE_CURVE ( 'NONE', #152, #49, #39, .T. ) ;
#157 =( LENGTH_UNIT ( ) NAMED_UNIT ( * ) SI_UNIT ( $, .METRE. ) );
#158 = LINE ( 'NONE', #51, #85 ) ;
#159 =( CONVERSION_BASED_UNIT ( 'INCH', #216 ) LENGTH_UNIT ( ) NAMED_UNIT ( #232 ) );
#160 = EDGE_CURVE ( 'NONE', #287, #342, #305, .T. ) ;
#161 = CARTESIAN_POINT ( 'NONE',  ( -0.2222798536380058143, 3.123263141623795767E-17, 1.000000000000000000 ) ) ;
#162 = FACE_OUTER_BOUND ( 'NONE', #208, .T. ) ;
#163 = CIRCLE ( 'NONE', #108, 0.3125000000000000000 ) ;
#164 = LINE ( 'NONE', #220, #244 ) ;
#165 = VECTOR ( 'NONE', #79, 39.37007874015748143 ) ;
#166 =( LENGTH_UNIT ( ) NAMED_UNIT ( * ) SI_UNIT ( $, .METRE. ) );
#167 = EDGE_LOOP ( 'NONE', ( #314, #293 ) ) ;
#168 = FACE_OUTER_BOUND ( 'NONE', #69, .T. ) ;
#169 = ADVANCED_FACE ( 'NONE', ( #214 ), #324, .T. ) ;
#170 = CARTESIAN_POINT ( 'NONE',  ( 0.1111399268190030043, -0.1925000000000000044, -1.000000000000000000 ) ) ;
#171 = VECTOR ( 'NONE', #194, 39.37007874015748143 ) ;
#172 = VECTOR ( 'NONE', #337, 39.37007874015748854 ) ;
#173 = CARTESIAN_POINT ( 'NONE',  ( 0.000000000000000000, 0.000000000000000000, 1.000000000000000000 ) ) ;
#174 = EDGE_CURVE ( 'NONE', #269, #259, #218, .T. ) ;
#175 = CARTESIAN_POINT ( 'NONE',  ( -0.1111399268190028794, 0.1924999999999999212, 1.000000000000000000 ) ) ;
#176 = EDGE_LOOP ( 'NONE', ( #18, #67, #200, #44 ) ) ;
#177 = AXIS2_PLACEMENT_3D ( 'NONE', #161, #275, #28 ) ;
#178 = PLANE ( 'NONE',  #190 ) ;
#179 = ORIENTED_EDGE ( 'NONE', *, *, #160, .F. ) ;
#180 = APPLICATION_PROTOCOL_DEFINITION ( 'draft international standard', 'automotive_design', 1998, #298 ) ;
#181 = LINE ( 'NONE', #319, #219 ) ;
#182 = ORIENTED_EDGE ( 'NONE', *, *, #71, .T. ) ;
#183 = DIRECTION ( 'NONE',  ( -0.000000000000000000, -0.000000000000000000, -1.000000000000000000 ) ) ;
#184 = ORIENTED_EDGE ( 'NONE', *, *, #71, .F. ) ;
#185 = ORIENTED_EDGE ( 'NONE', *, *, #11, .T. ) ;
#186 = PRODUCT_DEFINITION_CONTEXT ( 'detailed design', #347, 'design' ) ;
#187 = LINE ( 'NONE', #297, #172 ) ;
#188 = DIRECTION ( 'NONE',  ( -0.000000000000000000, -0.000000000000000000, -1.000000000000000000 ) ) ;
#189 = CARTESIAN_POINT ( 'NONE',  ( 0.1111399268190029627, 0.1925000000000000044, -1.000000000000000000 ) ) ;
#190 = AXIS2_PLACEMENT_3D ( 'NONE', #16, #289, #148 ) ;
#191 = LINE ( 'NONE', #248, #68 ) ;
#192 = CARTESIAN_POINT ( 'NONE',  ( 0.3125000000000000000, 3.827021247335478926E-17, -1.000000000000000000 ) ) ;
#193 = STYLED_ITEM ( 'NONE', ( #299 ), #121 ) ;
#194 = DIRECTION ( 'NONE',  ( 1.000000000000000000, 1.536266079084936861E-16, 0.000000000000000000 ) ) ;
#195 = AXIS2_PLACEMENT_3D ( 'NONE', #323, #307, #271 ) ;
#196 = FACE_BOUND ( 'NONE', #154, .T. ) ;
#197 = PLANE ( 'NONE',  #318 ) ;
#198 = EDGE_CURVE ( 'NONE', #259, #4, #30, .T. ) ;
#199 = AXIS2_PLACEMENT_3D ( 'NONE', #343, #292, #70 ) ;
#200 = ORIENTED_EDGE ( 'NONE', *, *, #48, .T. ) ;
#201 = DIRECTION ( 'NONE',  ( 0.000000000000000000, 0.000000000000000000, 1.000000000000000000 ) ) ;
#202 = CARTESIAN_POINT ( 'NONE',  ( 0.1111399268190029627, 0.1925000000000000044, 1.000000000000000000 ) ) ;
#203 = ORIENTED_EDGE ( 'NONE', *, *, #6, .T. ) ;
#204 = DIRECTION ( 'NONE',  ( -0.000000000000000000, -0.000000000000000000, -1.000000000000000000 ) ) ;
#205 = EDGE_CURVE ( 'NONE', #74, #49, #29, .T. ) ;
#206 = VERTEX_POINT ( 'NONE', #189 ) ;
#207 = ADVANCED_FACE ( 'NONE', ( #162 ), #129, .T. ) ;
#208 = EDGE_LOOP ( 'NONE', ( #41, #296, #92, #145 ) ) ;
#209 = CARTESIAN_POINT ( 'NONE',  ( -0.1111399268190028794, 0.1924999999999999212, -1.000000000000000000 ) ) ;
#210 = COLOUR_RGB ( '',0.8666666666666666963, 0.9098039215686274384, 1.000000000000000000 ) ;
#211 = ORIENTED_EDGE ( 'NONE', *, *, #333, .T. ) ;
#212 = EDGE_CURVE ( 'NONE', #74, #242, #12, .T. ) ;
#213 = COLOUR_RGB ( '',0.8666666666666666963, 0.9098039215686274384, 1.000000000000000000 ) ;
#214 = FACE_OUTER_BOUND ( 'NONE', #316, .T. ) ;
#215 = ADVANCED_FACE ( 'NONE', ( #27 ), #132, .T. ) ;
#216 = LENGTH_MEASURE_WITH_UNIT ( LENGTH_MEASURE( 0.02539999999999999897 ), #245 );
#217 = DIRECTION ( 'NONE',  ( -1.536266079084936861E-16, 1.000000000000000000, 0.000000000000000000 ) ) ;
#218 = LINE ( 'NONE', #56, #113 ) ;
#219 = VECTOR ( 'NONE', #204, 39.37007874015748143 ) ;
#220 = CARTESIAN_POINT ( 'NONE',  ( 0.1111399268190029627, 0.1925000000000000044, 1.000000000000000000 ) ) ;
#221 = CARTESIAN_POINT ( 'NONE',  ( -0.1111399268190028655, -0.1925000000000000322, 1.000000000000000000 ) ) ;
#222 = PRESENTATION_LAYER_ASSIGNMENT (  '', '', ( #193 ) ) ;
#223 = SURFACE_STYLE_FILL_AREA ( #138 ) ;
#224 = MECHANICAL_DESIGN_GEOMETRIC_PRESENTATION_REPRESENTATION (  '', ( #58 ), #308 ) ;
#225 = FACE_OUTER_BOUND ( 'NONE', #240, .T. ) ;
#226 = ADVANCED_FACE ( 'NONE', ( #304 ), #53, .T. ) ;
#227 = DIRECTION ( 'NONE',  ( 1.000000000000000000, 0.000000000000000000, -0.000000000000000000 ) ) ;
#228 =( CONVERSION_BASED_UNIT ( 'INCH', #140 ) LENGTH_UNIT ( ) NAMED_UNIT ( #144 ) );
#229 = MANIFOLD_SOLID_BREP ( 'Boss-Extrude1', #123 ) ;
#230 = VECTOR ( 'NONE', #301, 39.37007874015748854 ) ;
#231 = CARTESIAN_POINT ( 'NONE',  ( 0.2222798536380058976, -8.569712686068203092E-17, 1.000000000000000000 ) ) ;
#232 = DIMENSIONAL_EXPONENTS ( 1.000000000000000000, 0.000000000000000000, 0.000000000000000000, 0.000000000000000000, 0.000000000000000000, 0.000000000000000000, 0.000000000000000000 ) ;
#233 = VERTEX_POINT ( 'NONE', #231 ) ;
#234 = ORIENTED_EDGE ( 'NONE', *, *, #103, .T. ) ;
#235 = ORIENTED_EDGE ( 'NONE', *, *, #256, .T. ) ;
#236 = PRODUCT_CONTEXT ( 'NONE', #298, 'mechanical' ) ;
#237 = ORIENTED_EDGE ( 'NONE', *, *, #205, .F. ) ;
#238 =( NAMED_UNIT ( * ) PLANE_ANGLE_UNIT ( ) SI_UNIT ( $, .RADIAN. ) );
#239 = DIRECTION ( 'NONE',  ( 0.4999999999999998890, 0.8660254037844385966, 0.000000000000000000 ) ) ;
#240 = EDGE_LOOP ( 'NONE', ( #263, #340, #211, #76 ) ) ;
#241 = VERTEX_POINT ( 'NONE', #175 ) ;
#242 = VERTEX_POINT ( 'NONE', #257 ) ;
#243 = DIRECTION ( 'NONE',  ( -0.4999999999999997224, 0.8660254037844388186, 0.000000000000000000 ) ) ;
#244 = VECTOR ( 'NONE', #106, 39.37007874015748143 ) ;
#245 =( LENGTH_UNIT ( ) NAMED_UNIT ( * ) SI_UNIT ( $, .METRE. ) );
#246 = UNCERTAINTY_MEASURE_WITH_UNIT (LENGTH_MEASURE( 1.000000000000000082E-05 ), #261, 'distance_accuracy_value', 'NONE');
#247 = CARTESIAN_POINT ( 'NONE',  ( 0.1111399268190029627, 0.1925000000000000044, 1.000000000000000000 ) ) ;
#248 = CARTESIAN_POINT ( 'NONE',  ( -0.1111399268190028655, -0.1925000000000000322, 1.000000000000000000 ) ) ;
#249 = DIRECTION ( 'NONE',  ( 1.000000000000000000, 0.000000000000000000, 0.000000000000000000 ) ) ;
#250 = EDGE_CURVE ( 'NONE', #264, #342, #280, .T. ) ;
#251 = DIRECTION ( 'NONE',  ( 3.072532158169873721E-16, -1.000000000000000000, 0.000000000000000000 ) ) ;
#252 = CARTESIAN_POINT ( 'NONE',  ( 0.2222798536380058976, -8.569712686068203092E-17, 1.000000000000000000 ) ) ;
#253 = PRESENTATION_STYLE_ASSIGNMENT (( #89 ) ) ;
#254 = PRODUCT_DEFINITION_SHAPE ( 'NONE', 'NONE',  #8 ) ;
#255 = DIRECTION ( 'NONE',  ( -0.8660254037844388186, -0.4999999999999997224, 0.000000000000000000 ) ) ;
#256 = EDGE_CURVE ( 'NONE', #233, #19, #284, .T. ) ;
#257 = CARTESIAN_POINT ( 'NONE',  ( 0.3125000000000000000, 3.827021247335478926E-17, 1.000000000000000000 ) ) ;
#258 = FACE_OUTER_BOUND ( 'NONE', #40, .T. ) ;
#259 = VERTEX_POINT ( 'NONE', #170 ) ;
#260 = VECTOR ( 'NONE', #188, 39.37007874015748143 ) ;
#261 =( CONVERSION_BASED_UNIT ( 'INCH', #38 ) LENGTH_UNIT ( ) NAMED_UNIT ( #262 ) );
#262 = DIMENSIONAL_EXPONENTS ( 1.000000000000000000, 0.000000000000000000, 0.000000000000000000, 0.000000000000000000, 0.000000000000000000, 0.000000000000000000, 0.000000000000000000 ) ;
#263 = ORIENTED_EDGE ( 'NONE', *, *, #117, .F. ) ;
#264 = VERTEX_POINT ( 'NONE', #33 ) ;
#265 = APPLICATION_PROTOCOL_DEFINITION ( 'draft international standard', 'automotive_design', 1998, #347 ) ;
#266 = CARTESIAN_POINT ( 'NONE',  ( 0.1111399268190030043, -0.1925000000000000044, 1.000000000000000000 ) ) ;
#267 = ADVANCED_FACE ( 'NONE', ( #225 ), #329, .T. ) ;
#268 = ORIENTED_EDGE ( 'NONE', *, *, #107, .F. ) ;
#269 = VERTEX_POINT ( 'NONE', #88 ) ;
#270 = EDGE_LOOP ( 'NONE', ( #116, #94, #185, #15 ) ) ;
#271 = DIRECTION ( 'NONE',  ( -1.000000000000000000, 0.000000000000000000, 0.000000000000000000 ) ) ;
#272 = VECTOR ( 'NONE', #25, 39.37007874015748143 ) ;
#273 = CARTESIAN_POINT ( 'NONE',  ( 0.1111399268190029627, 0.1925000000000000044, -1.000000000000000000 ) ) ;
#274 = LINE ( 'NONE', #99, #230 ) ;
#275 = DIRECTION ( 'NONE',  ( 0.8660254037844388186, 0.4999999999999998335, -0.000000000000000000 ) ) ;
#276 = DIRECTION ( 'NONE',  ( 0.4999999999999998890, 0.8660254037844385966, 0.000000000000000000 ) ) ;
#277 = LINE ( 'NONE', #1, #300 ) ;
#278 = ADVANCED_FACE ( 'NONE', ( #258 ), #309, .T. ) ;
#279 = UNCERTAINTY_MEASURE_WITH_UNIT (LENGTH_MEASURE( 1.000000000000000082E-05 ), #228, 'distance_accuracy_value', 'NONE');
#280 = LINE ( 'NONE', #331, #285 ) ;
#281 = ADVANCED_FACE ( 'NONE', ( #168, #282 ), #7, .T. ) ;
#282 = FACE_BOUND ( 'NONE', #119, .T. ) ;
#283 = DIRECTION ( 'NONE',  ( 1.000000000000000000, 0.000000000000000000, 0.000000000000000000 ) ) ;
#284 = LINE ( 'NONE', #252, #328 ) ;
#285 = VECTOR ( 'NONE', #87, 39.37007874015748854 ) ;
#286 =( NAMED_UNIT ( * ) SI_UNIT ( $, .STERADIAN. ) SOLID_ANGLE_UNIT ( ) );
#287 = VERTEX_POINT ( 'NONE', #10 ) ;
#288 = VECTOR ( 'NONE', #102, 39.37007874015748143 ) ;
#289 = DIRECTION ( 'NONE',  ( -0.8660254037844387076, 0.4999999999999999445, 0.000000000000000000 ) ) ;
#290 = ORIENTED_EDGE ( 'NONE', *, *, #73, .F. ) ;
#291 = CARTESIAN_POINT ( 'NONE',  ( -0.1111399268190028794, -0.1925000000000000044, -1.000000000000000000 ) ) ;
#292 = DIRECTION ( 'NONE',  ( -0.000000000000000000, -0.000000000000000000, -1.000000000000000000 ) ) ;
#293 = ORIENTED_EDGE ( 'NONE', *, *, #156, .F. ) ;
#294 =( GEOMETRIC_REPRESENTATION_CONTEXT ( 3 ) GLOBAL_UNCERTAINTY_ASSIGNED_CONTEXT ( ( #246 ) ) GLOBAL_UNIT_ASSIGNED_CONTEXT ( ( #261, #133, #351 ) ) REPRESENTATION_CONTEXT ( 'NONE', 'WORKASPACE' ) );
#295 = EDGE_LOOP ( 'NONE', ( #90, #203, #317, #237 ) ) ;
#296 = ORIENTED_EDGE ( 'NONE', *, *, #103, .F. ) ;
#297 = CARTESIAN_POINT ( 'NONE',  ( -0.2222798536380058143, 3.123263141623795767E-17, 1.000000000000000000 ) ) ;
#298 = APPLICATION_CONTEXT ( 'automotive_design' ) ;
#299 = PRESENTATION_STYLE_ASSIGNMENT (( #42 ) ) ;
#300 = VECTOR ( 'NONE', #243, 39.37007874015748854 ) ;
#301 = DIRECTION ( 'NONE',  ( -0.5000000000000000000, -0.8660254037844385966, 0.000000000000000000 ) ) ;
#302 = ADVANCED_FACE ( 'NONE', ( #332, #196 ), #197, .F. ) ;
#303 = DIRECTION ( 'NONE',  ( 0.000000000000000000, 0.000000000000000000, 1.000000000000000000 ) ) ;
#304 = FACE_OUTER_BOUND ( 'NONE', #270, .T. ) ;
#305 = LINE ( 'NONE', #221, #75 ) ;
#306 = EDGE_CURVE ( 'NONE', #242, #74, #37, .T. ) ;
#307 = DIRECTION ( 'NONE',  ( -0.000000000000000000, -0.000000000000000000, -1.000000000000000000 ) ) ;
#308 =( GEOMETRIC_REPRESENTATION_CONTEXT ( 3 ) GLOBAL_UNCERTAINTY_ASSIGNED_CONTEXT ( ( #279 ) ) GLOBAL_UNIT_ASSIGNED_CONTEXT ( ( #228, #139, #64 ) ) REPRESENTATION_CONTEXT ( 'NONE', 'WORKASPACE' ) );
#309 = PLANE ( 'NONE',  #66 ) ;
#310 = CARTESIAN_POINT ( 'NONE',  ( 0.000000000000000000, 0.000000000000000000, -1.000000000000000000 ) ) ;
#311 = PRODUCT_RELATED_PRODUCT_CATEGORY ( 'part', '', ( #86 ) ) ;
#312 = ORIENTED_EDGE ( 'NONE', *, *, #212, .T. ) ;
#313 = CARTESIAN_POINT ( 'NONE',  ( 0.000000000000000000, 0.000000000000000000, -1.000000000000000000 ) ) ;
#314 = ORIENTED_EDGE ( 'NONE', *, *, #350, .F. ) ;
#315 = FACE_OUTER_BOUND ( 'NONE', #176, .T. ) ;
#316 = EDGE_LOOP ( 'NONE', ( #97, #124, #149, #46 ) ) ;
#317 = ORIENTED_EDGE ( 'NONE', *, *, #156, .T. ) ;
#318 = AXIS2_PLACEMENT_3D ( 'NONE', #310, #112, #62 ) ;
#319 = CARTESIAN_POINT ( 'NONE',  ( -0.1111399268190028794, 0.1924999999999999212, 1.000000000000000000 ) ) ;
#320 = PRODUCT_DEFINITION_FORMATION_WITH_SPECIFIED_SOURCE ( 'ANY', '', #86, .NOT_KNOWN. ) ;
#321 = ORIENTED_EDGE ( 'NONE', *, *, #114, .F. ) ;
#322 = VECTOR ( 'NONE', #276, 39.37007874015748854 ) ;
#323 = CARTESIAN_POINT ( 'NONE',  ( 0.000000000000000000, 0.000000000000000000, 1.000000000000000000 ) ) ;
#324 = CYLINDRICAL_SURFACE ( 'NONE', #195, 0.3125000000000000000 ) ;
#325 = CARTESIAN_POINT ( 'NONE',  ( 0.1111399268190030043, -0.1925000000000000044, -1.000000000000000000 ) ) ;
#326 = LINE ( 'NONE', #50, #260 ) ;
#327 = DIRECTION ( 'NONE',  ( -0.000000000000000000, -0.000000000000000000, -1.000000000000000000 ) ) ;
#328 = VECTOR ( 'NONE', #61, 39.37007874015748854 ) ;
#329 = PLANE ( 'NONE',  #127 ) ;
#330 = AXIS2_PLACEMENT_3D ( 'NONE', #349, #217, #134 ) ;
#331 = CARTESIAN_POINT ( 'NONE',  ( -0.2222798536380058143, 3.123263141623795767E-17, -1.000000000000000000 ) ) ;
#332 = FACE_OUTER_BOUND ( 'NONE', #167, .T. ) ;
#333 = EDGE_CURVE ( 'NONE', #241, #146, #35, .T. ) ;
#334 = SURFACE_SIDE_STYLE ('',( #223 ) ) ;
#335 = ORIENTED_EDGE ( 'NONE', *, *, #306, .T. ) ;
#336 = EDGE_CURVE ( 'NONE', #206, #13, #110, .T. ) ;
#337 = DIRECTION ( 'NONE',  ( 0.4999999999999998335, -0.8660254037844388186, 0.000000000000000000 ) ) ;
#338 = ORIENTED_EDGE ( 'NONE', *, *, #73, .T. ) ;
#339 = VECTOR ( 'NONE', #183, 39.37007874015748143 ) ;
#340 = ORIENTED_EDGE ( 'NONE', *, *, #34, .F. ) ;
#341 = CARTESIAN_POINT ( 'NONE',  ( -0.3125000000000000000, 0.000000000000000000, -1.000000000000000000 ) ) ;
#342 = VERTEX_POINT ( 'NONE', #291 ) ;
#343 = CARTESIAN_POINT ( 'NONE',  ( 0.000000000000000000, 0.000000000000000000, 1.000000000000000000 ) ) ;
#344 = ORIENTED_EDGE ( 'NONE', *, *, #333, .F. ) ;
#345 = AXIS2_PLACEMENT_3D ( 'NONE', #2, #155, #54 ) ;
#346 = CARTESIAN_POINT ( 'NONE',  ( 0.2222798536380058976, -8.569712686068203092E-17, 1.000000000000000000 ) ) ;
#347 = APPLICATION_CONTEXT ( 'automotive_design' ) ;
#348 = FILL_AREA_STYLE_COLOUR ( '', #210 ) ;
#349 = CARTESIAN_POINT ( 'NONE',  ( -0.1111399268190028655, -0.1925000000000000322, 1.000000000000000000 ) ) ;
#350 = EDGE_CURVE ( 'NONE', #49, #152, #163, .T. ) ;
#351 =( NAMED_UNIT ( * ) SI_UNIT ( $, .STERADIAN. ) SOLID_ANGLE_UNIT ( ) );
ENDSEC;
END-ISO-10303-21;
