ISO-10303-21;
HEADER;
FILE_DESCRIPTION (( 'STEP AP214' ),
    '1' );
FILE_NAME ('WCP-0960 Rev1.step',
    '2024-04-11T00:55:26',
    ( '' ),
    ( '' ),
    'SwSTEP 2.0',
    'SolidWorks 2022',
    '' );
FILE_SCHEMA (( 'AUTOMOTIVE_DESIGN' ));
ENDSEC;

DATA;
#1 = CARTESIAN_POINT ( 'NONE',  ( 0.000000000000000000, 0.000000000000000000, -0.5000000000000000000 ) ) ;
#2 = ORIENTED_EDGE ( 'NONE', *, *, #28, .F. ) ;
#3 = AXIS2_PLACEMENT_3D ( 'NONE', #328, #277, #131 ) ;
#4 = ORIENTED_EDGE ( 'NONE', *, *, #165, .F. ) ;
#5 = EDGE_CURVE ( 'NONE', #61, #50, #76, .T. ) ;
#6 = VECTOR ( 'NONE', #99, 39.37007874015748143 ) ;
#7 = PRODUCT_DEFINITION_FORMATION_WITH_SPECIFIED_SOURCE ( 'ANY', '', #136, .NOT_KNOWN. ) ;
#8 = ORIENTED_EDGE ( 'NONE', *, *, #156, .T. ) ;
#9 = PRODUCT_DEFINITION_SHAPE ( 'NONE', 'NONE',  #95 ) ;
#10 = CARTESIAN_POINT ( 'NONE',  ( -0.2222798536380058143, 3.414809992080329023E-17, 0.5000000000000000000 ) ) ;
#11 = ORIENTED_EDGE ( 'NONE', *, *, #299, .T. ) ;
#12 = VERTEX_POINT ( 'NONE', #10 ) ;
#13 = DIRECTION ( 'NONE',  ( -0.000000000000000000, -0.000000000000000000, -1.000000000000000000 ) ) ;
#14 = ORIENTED_EDGE ( 'NONE', *, *, #209, .T. ) ;
#15 = LINE ( 'NONE', #123, #162 ) ;
#16 = SURFACE_STYLE_USAGE ( .BOTH. , #267 ) ;
#17 = CIRCLE ( 'NONE', #215, 0.3125000000000000000 ) ;
#18 = CARTESIAN_POINT ( 'NONE',  ( 0.1111399268190029627, 0.1925000000000000044, -0.5000000000000000000 ) ) ;
#19 = VECTOR ( 'NONE', #217, 39.37007874015748854 ) ;
#20 = FACE_OUTER_BOUND ( 'NONE', #222, .T. ) ;
#21 =( NAMED_UNIT ( * ) PLANE_ANGLE_UNIT ( ) SI_UNIT ( $, .RADIAN. ) );
#22 = ORIENTED_EDGE ( 'NONE', *, *, #142, .T. ) ;
#23 = PLANE ( 'NONE',  #101 ) ;
#24 = VECTOR ( 'NONE', #338, 39.37007874015748854 ) ;
#25 = DIMENSIONAL_EXPONENTS ( 1.000000000000000000, 0.000000000000000000, 0.000000000000000000, 0.000000000000000000, 0.000000000000000000, 0.000000000000000000, 0.000000000000000000 ) ;
#26 = ORIENTED_EDGE ( 'NONE', *, *, #229, .F. ) ;
#27 = COLOUR_RGB ( '',0.8666666666666666963, 0.9098039215686274384, 1.000000000000000000 ) ;
#28 = EDGE_CURVE ( 'NONE', #63, #77, #139, .T. ) ;
#29 = VERTEX_POINT ( 'NONE', #231 ) ;
#30 = CARTESIAN_POINT ( 'NONE',  ( 0.000000000000000000, 0.000000000000000000, -0.5000000000000000000 ) ) ;
#31 = CARTESIAN_POINT ( 'NONE',  ( -0.1111399268190028794, 0.1924999999999999212, -0.5000000000000000000 ) ) ;
#32 = EDGE_LOOP ( 'NONE', ( #168, #260, #14, #278 ) ) ;
#33 = AXIS2_PLACEMENT_3D ( 'NONE', #190, #293, #104 ) ;
#34 = CARTESIAN_POINT ( 'NONE',  ( 0.000000000000000000, 0.000000000000000000, -0.5000000000000000000 ) ) ;
#35 = LINE ( 'NONE', #264, #125 ) ;
#36 = CARTESIAN_POINT ( 'NONE',  ( 0.3125000000000000000, 3.827021247335478926E-17, 0.5000000000000000000 ) ) ;
#37 = SURFACE_STYLE_FILL_AREA ( #141 ) ;
#38 = ADVANCED_FACE ( 'NONE', ( #176 ), #204, .T. ) ;
#39 = CARTESIAN_POINT ( 'NONE',  ( -0.1111399268190028794, 0.1924999999999999212, 0.5000000000000000000 ) ) ;
#40 = FACE_OUTER_BOUND ( 'NONE', #133, .T. ) ;
#41 = CARTESIAN_POINT ( 'NONE',  ( 0.1111399268190029627, 0.1925000000000000044, -0.5000000000000000000 ) ) ;
#42 = VECTOR ( 'NONE', #311, 39.37007874015748854 ) ;
#43 = CARTESIAN_POINT ( 'NONE',  ( 0.000000000000000000, 0.000000000000000000, 0.5000000000000000000 ) ) ;
#44 =( NAMED_UNIT ( * ) SI_UNIT ( $, .STERADIAN. ) SOLID_ANGLE_UNIT ( ) );
#45 = PRODUCT_CONTEXT ( 'NONE', #216, 'mechanical' ) ;
#46 = VECTOR ( 'NONE', #286, 39.37007874015748143 ) ;
#47 = CARTESIAN_POINT ( 'NONE',  ( -0.1111399268190028655, -0.1925000000000000322, 0.5000000000000000000 ) ) ;
#48 = EDGE_LOOP ( 'NONE', ( #111, #223, #315, #308 ) ) ;
#49 = LINE ( 'NONE', #212, #226 ) ;
#50 = VERTEX_POINT ( 'NONE', #173 ) ;
#51 = DIRECTION ( 'NONE',  ( 0.000000000000000000, 0.000000000000000000, 1.000000000000000000 ) ) ;
#52 = DIRECTION ( 'NONE',  ( 0.000000000000000000, 0.000000000000000000, 1.000000000000000000 ) ) ;
#53 = EDGE_LOOP ( 'NONE', ( #313, #206, #193, #247, #114, #280 ) ) ;
#54 = VECTOR ( 'NONE', #90, 39.37007874015748143 ) ;
#55 = VERTEX_POINT ( 'NONE', #288 ) ;
#56 = EDGE_CURVE ( 'NONE', #320, #77, #35, .T. ) ;
#57 = DIRECTION ( 'NONE',  ( -0.4999999999999998890, -0.8660254037844385966, 0.000000000000000000 ) ) ;
#58 = ORIENTED_EDGE ( 'NONE', *, *, #255, .T. ) ;
#59 = CARTESIAN_POINT ( 'NONE',  ( 0.1111399268190030043, -0.1925000000000000044, 0.5000000000000000000 ) ) ;
#60 = UNCERTAINTY_MEASURE_WITH_UNIT (LENGTH_MEASURE( 1.000000000000000082E-05 ), #73, 'distance_accuracy_value', 'NONE');
#61 = VERTEX_POINT ( 'NONE', #238 ) ;
#62 = CARTESIAN_POINT ( 'NONE',  ( 0.2222798536380058976, -8.569712686068203092E-17, 0.5000000000000000000 ) ) ;
#63 = VERTEX_POINT ( 'NONE', #343 ) ;
#64 = FACE_OUTER_BOUND ( 'NONE', #48, .T. ) ;
#65 = ORIENTED_EDGE ( 'NONE', *, *, #351, .T. ) ;
#66 = AXIS2_PLACEMENT_3D ( 'NONE', #335, #317, #86 ) ;
#67 = LINE ( 'NONE', #62, #122 ) ;
#68 = ORIENTED_EDGE ( 'NONE', *, *, #268, .T. ) ;
#69 = LINE ( 'NONE', #205, #46 ) ;
#70 = CARTESIAN_POINT ( 'NONE',  ( 0.1111399268190030043, -0.1925000000000000044, 0.5000000000000000000 ) ) ;
#71 = PRODUCT_RELATED_PRODUCT_CATEGORY ( 'part', '', ( #136 ) ) ;
#72 = MANIFOLD_SOLID_BREP ( 'Boss-Extrude1', #319 ) ;
#73 =( CONVERSION_BASED_UNIT ( 'INCH', #200 ) LENGTH_UNIT ( ) NAMED_UNIT ( #110 ) );
#74 = CARTESIAN_POINT ( 'NONE',  ( -0.3125000000000000000, 0.000000000000000000, 0.5000000000000000000 ) ) ;
#75 = AXIS2_PLACEMENT_3D ( 'NONE', #161, #121, #334 ) ;
#76 = CIRCLE ( 'NONE', #174, 0.3125000000000000000 ) ;
#77 = VERTEX_POINT ( 'NONE', #18 ) ;
#78 = LINE ( 'NONE', #70, #19 ) ;
#79 = ORIENTED_EDGE ( 'NONE', *, *, #130, .F. ) ;
#80 = DIRECTION ( 'NONE',  ( -0.000000000000000000, -0.000000000000000000, -1.000000000000000000 ) ) ;
#81 = ORIENTED_EDGE ( 'NONE', *, *, #165, .T. ) ;
#82 = VECTOR ( 'NONE', #346, 39.37007874015748854 ) ;
#83 = DIRECTION ( 'NONE',  ( 0.4999999999999998335, -0.8660254037844388186, 0.000000000000000000 ) ) ;
#84 = ORIENTED_EDGE ( 'NONE', *, *, #229, .T. ) ;
#85 = DIMENSIONAL_EXPONENTS ( 1.000000000000000000, 0.000000000000000000, 0.000000000000000000, 0.000000000000000000, 0.000000000000000000, 0.000000000000000000, 0.000000000000000000 ) ;
#86 = DIRECTION ( 'NONE',  ( -0.4999999999999998335, 0.8660254037844388186, 0.000000000000000000 ) ) ;
#87 = CIRCLE ( 'NONE', #262, 0.3125000000000000000 ) ;
#88 = VERTEX_POINT ( 'NONE', #198 ) ;
#89 = LINE ( 'NONE', #179, #24 ) ;
#90 = DIRECTION ( 'NONE',  ( -0.000000000000000000, -0.000000000000000000, -1.000000000000000000 ) ) ;
#91 = DIRECTION ( 'NONE',  ( -0.000000000000000000, -0.000000000000000000, -1.000000000000000000 ) ) ;
#92 = FILL_AREA_STYLE_COLOUR ( '', #27 ) ;
#93 = VECTOR ( 'NONE', #239, 39.37007874015748854 ) ;
#94 = CARTESIAN_POINT ( 'NONE',  ( -0.1111399268190028655, -0.1925000000000000322, 0.5000000000000000000 ) ) ;
#95 = PRODUCT_DEFINITION ( 'UNKNOWN', '', #7, #160 ) ;
#96 = CARTESIAN_POINT ( 'NONE',  ( 0.2222798536380058976, -8.569712686068203092E-17, -0.5000000000000000000 ) ) ;
#97 = LINE ( 'NONE', #306, #337 ) ;
#98 = FACE_OUTER_BOUND ( 'NONE', #326, .T. ) ;
#99 = DIRECTION ( 'NONE',  ( -0.000000000000000000, -0.000000000000000000, -1.000000000000000000 ) ) ;
#100 = DIRECTION ( 'NONE',  ( 1.000000000000000000, 0.000000000000000000, 0.000000000000000000 ) ) ;
#101 = AXIS2_PLACEMENT_3D ( 'NONE', #1, #323, #126 ) ;
#102 = ADVANCED_FACE ( 'NONE', ( #20 ), #124, .T. ) ;
#103 = VERTEX_POINT ( 'NONE', #94 ) ;
#104 = DIRECTION ( 'NONE',  ( 1.000000000000000000, 3.072532158169873721E-16, 0.000000000000000000 ) ) ;
#105 = ORIENTED_EDGE ( 'NONE', *, *, #196, .F. ) ;
#106 = EDGE_CURVE ( 'NONE', #29, #234, #97, .T. ) ;
#107 = LINE ( 'NONE', #332, #181 ) ;
#108 = ORIENTED_EDGE ( 'NONE', *, *, #56, .T. ) ;
#109 = DIRECTION ( 'NONE',  ( -0.000000000000000000, -0.000000000000000000, -1.000000000000000000 ) ) ;
#110 = DIMENSIONAL_EXPONENTS ( 1.000000000000000000, 0.000000000000000000, 0.000000000000000000, 0.000000000000000000, 0.000000000000000000, 0.000000000000000000, 0.000000000000000000 ) ;
#111 = ORIENTED_EDGE ( 'NONE', *, *, #56, .F. ) ;
#112 = CARTESIAN_POINT ( 'NONE',  ( 0.1111399268190029627, 0.1925000000000000044, 0.5000000000000000000 ) ) ;
#113 = CARTESIAN_POINT ( 'NONE',  ( -0.2222798536380058143, 3.123263141623795767E-17, -0.5000000000000000000 ) ) ;
#114 = ORIENTED_EDGE ( 'NONE', *, *, #299, .F. ) ;
#115 = AXIS2_PLACEMENT_3D ( 'NONE', #39, #342, #340 ) ;
#116 =( NAMED_UNIT ( * ) SI_UNIT ( $, .STERADIAN. ) SOLID_ANGLE_UNIT ( ) );
#117 = DIRECTION ( 'NONE',  ( 0.000000000000000000, 0.000000000000000000, 1.000000000000000000 ) ) ;
#118 = CARTESIAN_POINT ( 'NONE',  ( 0.1111399268190030043, -0.1925000000000000044, -0.5000000000000000000 ) ) ;
#119 = DIRECTION ( 'NONE',  ( -0.4999999999999997224, 0.8660254037844388186, 0.000000000000000000 ) ) ;
#120 = PLANE ( 'NONE',  #115 ) ;
#121 = DIRECTION ( 'NONE',  ( -1.536266079084936861E-16, 1.000000000000000000, 0.000000000000000000 ) ) ;
#122 = VECTOR ( 'NONE', #237, 39.37007874015748143 ) ;
#123 = CARTESIAN_POINT ( 'NONE',  ( 0.1111399268190030043, -0.1925000000000000044, 0.5000000000000000000 ) ) ;
#124 = PLANE ( 'NONE',  #33 ) ;
#125 = VECTOR ( 'NONE', #119, 39.37007874015748854 ) ;
#126 = DIRECTION ( 'NONE',  ( 1.000000000000000000, 0.000000000000000000, -0.000000000000000000 ) ) ;
#127 = CARTESIAN_POINT ( 'NONE',  ( 0.000000000000000000, 0.000000000000000000, 0.000000000000000000 ) ) ;
#128 = CYLINDRICAL_SURFACE ( 'NONE', #3, 0.3125000000000000000 ) ;
#129 = EDGE_CURVE ( 'NONE', #103, #29, #243, .T. ) ;
#130 = EDGE_CURVE ( 'NONE', #55, #195, #17, .T. ) ;
#131 = DIRECTION ( 'NONE',  ( -1.000000000000000000, 0.000000000000000000, 0.000000000000000000 ) ) ;
#132 = MECHANICAL_DESIGN_GEOMETRIC_PRESENTATION_REPRESENTATION (  '', ( #199 ), #270 ) ;
#133 = EDGE_LOOP ( 'NONE', ( #150, #339, #330, #310 ) ) ;
#134 = LINE ( 'NONE', #113, #241 ) ;
#135 = EDGE_LOOP ( 'NONE', ( #164, #84 ) ) ;
#136 = PRODUCT ( 'WCP-0960 Rev1', 'WCP-0960 Rev1', '', ( #45 ) ) ;
#137 = CARTESIAN_POINT ( 'NONE',  ( -0.1111399268190028794, 0.1924999999999999212, 0.5000000000000000000 ) ) ;
#138 = ORIENTED_EDGE ( 'NONE', *, *, #255, .F. ) ;
#139 = LINE ( 'NONE', #112, #54 ) ;
#140 = CARTESIAN_POINT ( 'NONE',  ( 0.3125000000000000000, 3.827021247335478926E-17, 0.5000000000000000000 ) ) ;
#141 = FILL_AREA_STYLE ('',( #92 ) ) ;
#142 = EDGE_CURVE ( 'NONE', #12, #103, #49, .T. ) ;
#143 =( NAMED_UNIT ( * ) PLANE_ANGLE_UNIT ( ) SI_UNIT ( $, .RADIAN. ) );
#144 = ORIENTED_EDGE ( 'NONE', *, *, #129, .T. ) ;
#145 = AXIS2_PLACEMENT_3D ( 'NONE', #321, #294, #242 ) ;
#146 = DIRECTION ( 'NONE',  ( 0.000000000000000000, 0.000000000000000000, 1.000000000000000000 ) ) ;
#147 = ORIENTED_EDGE ( 'NONE', *, *, #214, .T. ) ;
#148 = ADVANCED_FACE ( 'NONE', ( #98, #246 ), #23, .F. ) ;
#149 = CARTESIAN_POINT ( 'NONE',  ( 0.1111399268190030043, -0.1925000000000000044, 0.5000000000000000000 ) ) ;
#150 = ORIENTED_EDGE ( 'NONE', *, *, #106, .F. ) ;
#151 = LINE ( 'NONE', #235, #93 ) ;
#152 = CARTESIAN_POINT ( 'NONE',  ( 0.000000000000000000, 0.000000000000000000, 0.5000000000000000000 ) ) ;
#153 = DIRECTION ( 'NONE',  ( 0.000000000000000000, 0.000000000000000000, 1.000000000000000000 ) ) ;
#154 = FILL_AREA_STYLE_COLOUR ( '', #257 ) ;
#155 = AXIS2_PLACEMENT_3D ( 'NONE', #43, #271, #157 ) ;
#156 = EDGE_CURVE ( 'NONE', #285, #236, #78, .T. ) ;
#157 = DIRECTION ( 'NONE',  ( 1.000000000000000000, 0.000000000000000000, -0.000000000000000000 ) ) ;
#158 = ADVANCED_FACE ( 'NONE', ( #295, #329 ), #350, .T. ) ;
#159 = DIRECTION ( 'NONE',  ( 1.000000000000000000, 1.536266079084936861E-16, 0.000000000000000000 ) ) ;
#160 = PRODUCT_DEFINITION_CONTEXT ( 'detailed design', #289, 'design' ) ;
#161 = CARTESIAN_POINT ( 'NONE',  ( -0.1111399268190028655, -0.1925000000000000322, 0.5000000000000000000 ) ) ;
#162 = VECTOR ( 'NONE', #318, 39.37007874015748143 ) ;
#163 = DIRECTION ( 'NONE',  ( -0.8660254037844387076, 0.4999999999999999445, 0.000000000000000000 ) ) ;
#164 = ORIENTED_EDGE ( 'NONE', *, *, #130, .T. ) ;
#165 = EDGE_CURVE ( 'NONE', #55, #61, #178, .T. ) ;
#166 = EDGE_LOOP ( 'NONE', ( #105, #250, #22, #144 ) ) ;
#167 = VECTOR ( 'NONE', #177, 39.37007874015748143 ) ;
#168 = ORIENTED_EDGE ( 'NONE', *, *, #275, .F. ) ;
#169 = EDGE_CURVE ( 'NONE', #103, #285, #304, .T. ) ;
#170 = FACE_OUTER_BOUND ( 'NONE', #187, .T. ) ;
#171 = EDGE_LOOP ( 'NONE', ( #261, #253, #8, #282 ) ) ;
#172 =( LENGTH_UNIT ( ) NAMED_UNIT ( * ) SI_UNIT ( $, .METRE. ) );
#173 = CARTESIAN_POINT ( 'NONE',  ( 0.3125000000000000000, 3.827021247335478926E-17, -0.5000000000000000000 ) ) ;
#174 = AXIS2_PLACEMENT_3D ( 'NONE', #30, #117, #341 ) ;
#175 = CYLINDRICAL_SURFACE ( 'NONE', #333, 0.3125000000000000000 ) ;
#176 = FACE_OUTER_BOUND ( 'NONE', #166, .T. ) ;
#177 = DIRECTION ( 'NONE',  ( -1.000000000000000000, -3.072532158169873721E-16, 0.000000000000000000 ) ) ;
#178 = LINE ( 'NONE', #74, #6 ) ;
#179 = CARTESIAN_POINT ( 'NONE',  ( 0.2222798536380058976, -8.569712686068203092E-17, 0.5000000000000000000 ) ) ;
#180 = LENGTH_MEASURE_WITH_UNIT ( LENGTH_MEASURE( 0.02539999999999999897 ), #221 );
#181 = VECTOR ( 'NONE', #80, 39.37007874015748143 ) ;
#182 =( NAMED_UNIT ( * ) PLANE_ANGLE_UNIT ( ) SI_UNIT ( $, .RADIAN. ) );
#183 = ADVANCED_FACE ( 'NONE', ( #219 ), #128, .T. ) ;
#184 = ADVANCED_FACE ( 'NONE', ( #40 ), #248, .T. ) ;
#185 = DIRECTION ( 'NONE',  ( 0.4999999999999998335, -0.8660254037844388186, 0.000000000000000000 ) ) ;
#186 =( GEOMETRIC_REPRESENTATION_CONTEXT ( 3 ) GLOBAL_UNCERTAINTY_ASSIGNED_CONTEXT ( ( #232 ) ) GLOBAL_UNIT_ASSIGNED_CONTEXT ( ( #297, #182, #44 ) ) REPRESENTATION_CONTEXT ( 'NONE', 'WORKASPACE' ) );
#187 = EDGE_LOOP ( 'NONE', ( #307, #79, #81, #259 ) ) ;
#188 =( NAMED_UNIT ( * ) SI_UNIT ( $, .STERADIAN. ) SOLID_ANGLE_UNIT ( ) );
#189 = APPLICATION_PROTOCOL_DEFINITION ( 'draft international standard', 'automotive_design', 1998, #216 ) ;
#190 = CARTESIAN_POINT ( 'NONE',  ( 0.1111399268190029627, 0.1925000000000000044, 0.5000000000000000000 ) ) ;
#191 = ORIENTED_EDGE ( 'NONE', *, *, #351, .F. ) ;
#192 = PRESENTATION_LAYER_ASSIGNMENT (  '', '', ( #348 ) ) ;
#193 = ORIENTED_EDGE ( 'NONE', *, *, #142, .F. ) ;
#194 = CARTESIAN_POINT ( 'NONE',  ( -0.1111399268190028794, 0.1924999999999999212, 0.5000000000000000000 ) ) ;
#195 = VERTEX_POINT ( 'NONE', #140 ) ;
#196 = EDGE_CURVE ( 'NONE', #254, #29, #134, .T. ) ;
#197 = UNCERTAINTY_MEASURE_WITH_UNIT (LENGTH_MEASURE( 1.000000000000000082E-05 ), #240, 'distance_accuracy_value', 'NONE');
#198 = CARTESIAN_POINT ( 'NONE',  ( -0.1111399268190028794, 0.1924999999999999212, -0.5000000000000000000 ) ) ;
#199 = STYLED_ITEM ( 'NONE', ( #228 ), #72 ) ;
#200 = LENGTH_MEASURE_WITH_UNIT ( LENGTH_MEASURE( 0.02539999999999999897 ), #172 );
#201 = EDGE_LOOP ( 'NONE', ( #26, #276, #58, #4 ) ) ;
#202 = ADVANCED_BREP_SHAPE_REPRESENTATION ( 'WCP-0960 Rev1', ( #72, #345 ), #349 ) ;
#203 = FACE_OUTER_BOUND ( 'NONE', #32, .T. ) ;
#204 = PLANE ( 'NONE',  #66 ) ;
#205 = CARTESIAN_POINT ( 'NONE',  ( 0.1111399268190029627, 0.1925000000000000044, 0.5000000000000000000 ) ) ;
#206 = ORIENTED_EDGE ( 'NONE', *, *, #169, .F. ) ;
#207 = AXIS2_PLACEMENT_3D ( 'NONE', #34, #146, #322 ) ;
#208 = CARTESIAN_POINT ( 'NONE',  ( -0.2222798536380058143, 3.123263141623795767E-17, -0.5000000000000000000 ) ) ;
#209 = EDGE_CURVE ( 'NONE', #291, #12, #281, .T. ) ;
#210 = DIRECTION ( 'NONE',  ( 1.000000000000000000, 0.000000000000000000, 0.000000000000000000 ) ) ;
#211 = LINE ( 'NONE', #41, #167 ) ;
#212 = CARTESIAN_POINT ( 'NONE',  ( -0.2222798536380058143, 3.123263141623795767E-17, 0.5000000000000000000 ) ) ;
#213 = LENGTH_MEASURE_WITH_UNIT ( LENGTH_MEASURE( 0.02539999999999999897 ), #274 );
#214 = EDGE_CURVE ( 'NONE', #291, #88, #251, .T. ) ;
#215 = AXIS2_PLACEMENT_3D ( 'NONE', #301, #51, #210 ) ;
#216 = APPLICATION_CONTEXT ( 'automotive_design' ) ;
#217 = DIRECTION ( 'NONE',  ( 0.4999999999999998890, 0.8660254037844385966, 0.000000000000000000 ) ) ;
#218 = SURFACE_STYLE_FILL_AREA ( #272 ) ;
#219 = FACE_OUTER_BOUND ( 'NONE', #201, .T. ) ;
#220 = VECTOR ( 'NONE', #13, 39.37007874015748143 ) ;
#221 =( LENGTH_UNIT ( ) NAMED_UNIT ( * ) SI_UNIT ( $, .METRE. ) );
#222 = EDGE_LOOP ( 'NONE', ( #191, #2, #11, #147 ) ) ;
#223 = ORIENTED_EDGE ( 'NONE', *, *, #314, .F. ) ;
#224 = ADVANCED_FACE ( 'NONE', ( #225 ), #309, .T. ) ;
#225 = FACE_OUTER_BOUND ( 'NONE', #171, .T. ) ;
#226 = VECTOR ( 'NONE', #185, 39.37007874015748854 ) ;
#227 = ORIENTED_EDGE ( 'NONE', *, *, #275, .T. ) ;
#228 = PRESENTATION_STYLE_ASSIGNMENT (( #16 ) ) ;
#229 = EDGE_CURVE ( 'NONE', #195, #55, #87, .T. ) ;
#230 = EDGE_CURVE ( 'NONE', #12, #254, #107, .T. ) ;
#231 = CARTESIAN_POINT ( 'NONE',  ( -0.1111399268190028794, -0.1925000000000000044, -0.5000000000000000000 ) ) ;
#232 = UNCERTAINTY_MEASURE_WITH_UNIT (LENGTH_MEASURE( 1.000000000000000082E-05 ), #297, 'distance_accuracy_value', 'NONE');
#233 = LINE ( 'NONE', #36, #220 ) ;
#234 = VERTEX_POINT ( 'NONE', #118 ) ;
#235 = CARTESIAN_POINT ( 'NONE',  ( 0.1111399268190030043, -0.1925000000000000044, -0.5000000000000000000 ) ) ;
#236 = VERTEX_POINT ( 'NONE', #292 ) ;
#237 = DIRECTION ( 'NONE',  ( -0.000000000000000000, -0.000000000000000000, -1.000000000000000000 ) ) ;
#238 = CARTESIAN_POINT ( 'NONE',  ( -0.3125000000000000000, 0.000000000000000000, -0.5000000000000000000 ) ) ;
#239 = DIRECTION ( 'NONE',  ( 0.4999999999999998890, 0.8660254037844385966, 0.000000000000000000 ) ) ;
#240 =( CONVERSION_BASED_UNIT ( 'INCH', #180 ) LENGTH_UNIT ( ) NAMED_UNIT ( #25 ) );
#241 = VECTOR ( 'NONE', #83, 39.37007874015748854 ) ;
#242 = DIRECTION ( 'NONE',  ( 0.4999999999999997224, -0.8660254037844388186, 0.000000000000000000 ) ) ;
#243 = LINE ( 'NONE', #279, #283 ) ;
#244 = EDGE_CURVE ( 'NONE', #195, #50, #233, .T. ) ;
#245 = APPLICATION_PROTOCOL_DEFINITION ( 'draft international standard', 'automotive_design', 1998, #289 ) ;
#246 = FACE_BOUND ( 'NONE', #284, .T. ) ;
#247 = ORIENTED_EDGE ( 'NONE', *, *, #209, .F. ) ;
#248 = PLANE ( 'NONE',  #75 ) ;
#249 = VECTOR ( 'NONE', #109, 39.37007874015748143 ) ;
#250 = ORIENTED_EDGE ( 'NONE', *, *, #230, .F. ) ;
#251 = LINE ( 'NONE', #194, #249 ) ;
#252 = DIRECTION ( 'NONE',  ( 1.000000000000000000, 0.000000000000000000, 0.000000000000000000 ) ) ;
#253 = ORIENTED_EDGE ( 'NONE', *, *, #331, .F. ) ;
#254 = VERTEX_POINT ( 'NONE', #208 ) ;
#255 = EDGE_CURVE ( 'NONE', #50, #61, #296, .T. ) ;
#256 = CARTESIAN_POINT ( 'NONE',  ( 0.000000000000000000, 0.000000000000000000, 0.5000000000000000000 ) ) ;
#257 = COLOUR_RGB ( '',0.8666666666666666963, 0.9098039215686274384, 1.000000000000000000 ) ;
#258 = ORIENTED_EDGE ( 'NONE', *, *, #5, .F. ) ;
#259 = ORIENTED_EDGE ( 'NONE', *, *, #5, .T. ) ;
#260 = ORIENTED_EDGE ( 'NONE', *, *, #214, .F. ) ;
#261 = ORIENTED_EDGE ( 'NONE', *, *, #268, .F. ) ;
#262 = AXIS2_PLACEMENT_3D ( 'NONE', #256, #52, #252 ) ;
#263 = CARTESIAN_POINT ( 'NONE',  ( -0.1111399268190028794, 0.1924999999999999212, 0.5000000000000000000 ) ) ;
#264 = CARTESIAN_POINT ( 'NONE',  ( 0.2222798536380058976, -8.569712686068203092E-17, -0.5000000000000000000 ) ) ;
#265 = ADVANCED_FACE ( 'NONE', ( #203 ), #120, .T. ) ;
#266 = DIRECTION ( 'NONE',  ( -1.000000000000000000, 0.000000000000000000, 0.000000000000000000 ) ) ;
#267 = SURFACE_SIDE_STYLE ('',( #37 ) ) ;
#268 = EDGE_CURVE ( 'NONE', #234, #320, #151, .T. ) ;
#269 = LINE ( 'NONE', #31, #82 ) ;
#270 =( GEOMETRIC_REPRESENTATION_CONTEXT ( 3 ) GLOBAL_UNCERTAINTY_ASSIGNED_CONTEXT ( ( #197 ) ) GLOBAL_UNIT_ASSIGNED_CONTEXT ( ( #240, #21, #188 ) ) REPRESENTATION_CONTEXT ( 'NONE', 'WORKASPACE' ) );
#271 = DIRECTION ( 'NONE',  ( 0.000000000000000000, 0.000000000000000000, 1.000000000000000000 ) ) ;
#272 = FILL_AREA_STYLE ('',( #154 ) ) ;
#273 = PRESENTATION_LAYER_ASSIGNMENT (  '', '', ( #199 ) ) ;
#274 =( LENGTH_UNIT ( ) NAMED_UNIT ( * ) SI_UNIT ( $, .METRE. ) );
#275 = EDGE_CURVE ( 'NONE', #88, #254, #269, .T. ) ;
#276 = ORIENTED_EDGE ( 'NONE', *, *, #244, .T. ) ;
#277 = DIRECTION ( 'NONE',  ( -0.000000000000000000, -0.000000000000000000, -1.000000000000000000 ) ) ;
#278 = ORIENTED_EDGE ( 'NONE', *, *, #230, .T. ) ;
#279 = CARTESIAN_POINT ( 'NONE',  ( -0.1111399268190028655, -0.1925000000000000322, 0.5000000000000000000 ) ) ;
#280 = ORIENTED_EDGE ( 'NONE', *, *, #305, .F. ) ;
#281 = LINE ( 'NONE', #137, #42 ) ;
#282 = ORIENTED_EDGE ( 'NONE', *, *, #314, .T. ) ;
#283 = VECTOR ( 'NONE', #347, 39.37007874015748143 ) ;
#284 = EDGE_LOOP ( 'NONE', ( #303, #68, #108, #65, #227, #287 ) ) ;
#285 = VERTEX_POINT ( 'NONE', #149 ) ;
#286 = DIRECTION ( 'NONE',  ( -1.000000000000000000, -3.072532158169873721E-16, 0.000000000000000000 ) ) ;
#287 = ORIENTED_EDGE ( 'NONE', *, *, #196, .T. ) ;
#288 = CARTESIAN_POINT ( 'NONE',  ( -0.3125000000000000000, 0.000000000000000000, 0.5000000000000000000 ) ) ;
#289 = APPLICATION_CONTEXT ( 'automotive_design' ) ;
#290 = PLANE ( 'NONE',  #145 ) ;
#291 = VERTEX_POINT ( 'NONE', #263 ) ;
#292 = CARTESIAN_POINT ( 'NONE',  ( 0.2222798536380058976, -8.569712686068203092E-17, 0.5000000000000000000 ) ) ;
#293 = DIRECTION ( 'NONE',  ( 3.072532158169873721E-16, -1.000000000000000000, 0.000000000000000000 ) ) ;
#294 = DIRECTION ( 'NONE',  ( -0.8660254037844388186, -0.4999999999999997224, 0.000000000000000000 ) ) ;
#295 = FACE_OUTER_BOUND ( 'NONE', #135, .T. ) ;
#296 = CIRCLE ( 'NONE', #207, 0.3125000000000000000 ) ;
#297 =( CONVERSION_BASED_UNIT ( 'INCH', #213 ) LENGTH_UNIT ( ) NAMED_UNIT ( #85 ) );
#298 = SURFACE_SIDE_STYLE ('',( #218 ) ) ;
#299 = EDGE_CURVE ( 'NONE', #63, #291, #69, .T. ) ;
#300 = MECHANICAL_DESIGN_GEOMETRIC_PRESENTATION_REPRESENTATION (  '', ( #348 ), #186 ) ;
#301 = CARTESIAN_POINT ( 'NONE',  ( 0.000000000000000000, 0.000000000000000000, 0.5000000000000000000 ) ) ;
#302 = SHAPE_DEFINITION_REPRESENTATION ( #9, #202 ) ;
#303 = ORIENTED_EDGE ( 'NONE', *, *, #106, .T. ) ;
#304 = LINE ( 'NONE', #47, #312 ) ;
#305 = EDGE_CURVE ( 'NONE', #236, #63, #89, .T. ) ;
#306 = CARTESIAN_POINT ( 'NONE',  ( -0.1111399268190028655, -0.1925000000000000322, -0.5000000000000000000 ) ) ;
#307 = ORIENTED_EDGE ( 'NONE', *, *, #244, .F. ) ;
#308 = ORIENTED_EDGE ( 'NONE', *, *, #28, .T. ) ;
#309 = PLANE ( 'NONE',  #327 ) ;
#310 = ORIENTED_EDGE ( 'NONE', *, *, #331, .T. ) ;
#311 = DIRECTION ( 'NONE',  ( -0.5000000000000000000, -0.8660254037844385966, 0.000000000000000000 ) ) ;
#312 = VECTOR ( 'NONE', #159, 39.37007874015748143 ) ;
#313 = ORIENTED_EDGE ( 'NONE', *, *, #156, .F. ) ;
#314 = EDGE_CURVE ( 'NONE', #236, #320, #67, .T. ) ;
#315 = ORIENTED_EDGE ( 'NONE', *, *, #305, .T. ) ;
#316 = ADVANCED_FACE ( 'NONE', ( #170 ), #175, .T. ) ;
#317 = DIRECTION ( 'NONE',  ( 0.8660254037844388186, 0.4999999999999998335, -0.000000000000000000 ) ) ;
#318 = DIRECTION ( 'NONE',  ( -0.000000000000000000, -0.000000000000000000, -1.000000000000000000 ) ) ;
#319 = CLOSED_SHELL ( 'NONE', ( #183, #158, #148, #316, #184, #224, #336, #102, #265, #38 ) ) ;
#320 = VERTEX_POINT ( 'NONE', #96 ) ;
#321 = CARTESIAN_POINT ( 'NONE',  ( 0.2222798536380058976, -8.569712686068203092E-17, 0.5000000000000000000 ) ) ;
#322 = DIRECTION ( 'NONE',  ( 1.000000000000000000, 0.000000000000000000, 0.000000000000000000 ) ) ;
#323 = DIRECTION ( 'NONE',  ( 0.000000000000000000, 0.000000000000000000, 1.000000000000000000 ) ) ;
#324 = SURFACE_STYLE_USAGE ( .BOTH. , #298 ) ;
#325 = PRESENTATION_STYLE_ASSIGNMENT (( #324 ) ) ;
#326 = EDGE_LOOP ( 'NONE', ( #258, #138 ) ) ;
#327 = AXIS2_PLACEMENT_3D ( 'NONE', #59, #163, #57 ) ;
#328 = CARTESIAN_POINT ( 'NONE',  ( 0.000000000000000000, 0.000000000000000000, 0.5000000000000000000 ) ) ;
#329 = FACE_BOUND ( 'NONE', #53, .T. ) ;
#330 = ORIENTED_EDGE ( 'NONE', *, *, #169, .T. ) ;
#331 = EDGE_CURVE ( 'NONE', #285, #234, #15, .T. ) ;
#332 = CARTESIAN_POINT ( 'NONE',  ( -0.2222798536380058143, 3.123263141623795767E-17, 0.5000000000000000000 ) ) ;
#333 = AXIS2_PLACEMENT_3D ( 'NONE', #152, #91, #266 ) ;
#334 = DIRECTION ( 'NONE',  ( -1.000000000000000000, -1.536266079084936861E-16, 0.000000000000000000 ) ) ;
#335 = CARTESIAN_POINT ( 'NONE',  ( -0.2222798536380058143, 3.123263141623795767E-17, 0.5000000000000000000 ) ) ;
#336 = ADVANCED_FACE ( 'NONE', ( #64 ), #290, .T. ) ;
#337 = VECTOR ( 'NONE', #344, 39.37007874015748143 ) ;
#338 = DIRECTION ( 'NONE',  ( -0.4999999999999997224, 0.8660254037844388186, 0.000000000000000000 ) ) ;
#339 = ORIENTED_EDGE ( 'NONE', *, *, #129, .F. ) ;
#340 = DIRECTION ( 'NONE',  ( 0.5000000000000000000, 0.8660254037844385966, 0.000000000000000000 ) ) ;
#341 = DIRECTION ( 'NONE',  ( 1.000000000000000000, 0.000000000000000000, 0.000000000000000000 ) ) ;
#342 = DIRECTION ( 'NONE',  ( 0.8660254037844387076, -0.5000000000000001110, 0.000000000000000000 ) ) ;
#343 = CARTESIAN_POINT ( 'NONE',  ( 0.1111399268190029627, 0.1925000000000000044, 0.5000000000000000000 ) ) ;
#344 = DIRECTION ( 'NONE',  ( 1.000000000000000000, 1.536266079084936861E-16, 0.000000000000000000 ) ) ;
#345 = AXIS2_PLACEMENT_3D ( 'NONE', #127, #153, #100 ) ;
#346 = DIRECTION ( 'NONE',  ( -0.5000000000000000000, -0.8660254037844385966, 0.000000000000000000 ) ) ;
#347 = DIRECTION ( 'NONE',  ( -0.000000000000000000, -0.000000000000000000, -1.000000000000000000 ) ) ;
#348 = STYLED_ITEM ( 'NONE', ( #325 ), #202 ) ;
#349 =( GEOMETRIC_REPRESENTATION_CONTEXT ( 3 ) GLOBAL_UNCERTAINTY_ASSIGNED_CONTEXT ( ( #60 ) ) GLOBAL_UNIT_ASSIGNED_CONTEXT ( ( #73, #143, #116 ) ) REPRESENTATION_CONTEXT ( 'NONE', 'WORKASPACE' ) );
#350 = PLANE ( 'NONE',  #155 ) ;
#351 = EDGE_CURVE ( 'NONE', #77, #88, #211, .T. ) ;
ENDSEC;
END-ISO-10303-21;
