ISO-10303-21;
HEADER;
FILE_DESCRIPTION (( 'STEP AP214' ),
    '1' );
FILE_NAME ('WCP-0959 Rev1.step',
    '2024-04-11T00:55:21',
    ( '' ),
    ( '' ),
    'SwSTEP 2.0',
    'SolidWorks 2022',
    '' );
FILE_SCHEMA (( 'AUTOMOTIVE_DESIGN' ));
ENDSEC;

DATA;
#1 = FILL_AREA_STYLE ('',( #53 ) ) ;
#2 = ORIENTED_EDGE ( 'NONE', *, *, #182, .F. ) ;
#3 = CARTESIAN_POINT ( 'NONE',  ( 0.000000000000000000, 0.000000000000000000, -0.2500000000000000000 ) ) ;
#4 = DIRECTION ( 'NONE',  ( -0.5000000000000000000, -0.8660254037844385966, 0.000000000000000000 ) ) ;
#5 = PLANE ( 'NONE',  #96 ) ;
#6 = VERTEX_POINT ( 'NONE', #203 ) ;
#7 = VECTOR ( 'NONE', #119, 39.37007874015748143 ) ;
#8 = FACE_OUTER_BOUND ( 'NONE', #268, .T. ) ;
#9 = DIRECTION ( 'NONE',  ( 0.000000000000000000, 0.000000000000000000, 1.000000000000000000 ) ) ;
#10 = VERTEX_POINT ( 'NONE', #89 ) ;
#11 = CARTESIAN_POINT ( 'NONE',  ( 0.2222798536380058976, -8.569712686068203092E-17, 0.2500000000000000000 ) ) ;
#12 = ORIENTED_EDGE ( 'NONE', *, *, #332, .F. ) ;
#13 = VECTOR ( 'NONE', #290, 39.37007874015748854 ) ;
#14 = LINE ( 'NONE', #86, #74 ) ;
#15 = ORIENTED_EDGE ( 'NONE', *, *, #31, .F. ) ;
#16 = DIRECTION ( 'NONE',  ( 0.000000000000000000, 0.000000000000000000, 1.000000000000000000 ) ) ;
#17 = ORIENTED_EDGE ( 'NONE', *, *, #266, .T. ) ;
#18 = ORIENTED_EDGE ( 'NONE', *, *, #105, .F. ) ;
#19 = DIRECTION ( 'NONE',  ( 0.5000000000000000000, 0.8660254037844385966, 0.000000000000000000 ) ) ;
#20 =( NAMED_UNIT ( * ) PLANE_ANGLE_UNIT ( ) SI_UNIT ( $, .RADIAN. ) );
#21 = EDGE_CURVE ( 'NONE', #216, #286, #62, .T. ) ;
#22 = AXIS2_PLACEMENT_3D ( 'NONE', #311, #274, #336 ) ;
#23 = EDGE_CURVE ( 'NONE', #161, #6, #37, .T. ) ;
#24 = CARTESIAN_POINT ( 'NONE',  ( -0.3125000000000000000, 0.000000000000000000, 0.2500000000000000000 ) ) ;
#25 = ADVANCED_FACE ( 'NONE', ( #288, #44 ), #193, .F. ) ;
#26 = DIRECTION ( 'NONE',  ( 0.000000000000000000, 0.000000000000000000, 1.000000000000000000 ) ) ;
#27 = ORIENTED_EDGE ( 'NONE', *, *, #51, .F. ) ;
#28 = LINE ( 'NONE', #205, #130 ) ;
#29 =( GEOMETRIC_REPRESENTATION_CONTEXT ( 3 ) GLOBAL_UNCERTAINTY_ASSIGNED_CONTEXT ( ( #116 ) ) GLOBAL_UNIT_ASSIGNED_CONTEXT ( ( #347, #291, #342 ) ) REPRESENTATION_CONTEXT ( 'NONE', 'WORKASPACE' ) );
#30 = ORIENTED_EDGE ( 'NONE', *, *, #23, .T. ) ;
#31 = EDGE_CURVE ( 'NONE', #216, #78, #196, .T. ) ;
#32 = DIRECTION ( 'NONE',  ( -0.000000000000000000, -0.000000000000000000, -1.000000000000000000 ) ) ;
#33 = CARTESIAN_POINT ( 'NONE',  ( 0.2222798536380058976, -8.569712686068203092E-17, 0.2500000000000000000 ) ) ;
#34 = ORIENTED_EDGE ( 'NONE', *, *, #182, .T. ) ;
#35 = DIRECTION ( 'NONE',  ( 0.4999999999999998335, -0.8660254037844388186, 0.000000000000000000 ) ) ;
#36 = DIRECTION ( 'NONE',  ( -0.000000000000000000, -0.000000000000000000, -1.000000000000000000 ) ) ;
#37 = LINE ( 'NONE', #88, #70 ) ;
#38 = DIRECTION ( 'NONE',  ( 0.8660254037844388186, 0.4999999999999998335, -0.000000000000000000 ) ) ;
#39 = ORIENTED_EDGE ( 'NONE', *, *, #168, .F. ) ;
#40 = DIRECTION ( 'NONE',  ( 1.000000000000000000, 3.072532158169873721E-16, 0.000000000000000000 ) ) ;
#41 = ORIENTED_EDGE ( 'NONE', *, *, #47, .F. ) ;
#42 = VECTOR ( 'NONE', #98, 39.37007874015748143 ) ;
#43 = ORIENTED_EDGE ( 'NONE', *, *, #297, .F. ) ;
#44 = FACE_BOUND ( 'NONE', #313, .T. ) ;
#45 = SURFACE_STYLE_FILL_AREA ( #289 ) ;
#46 = PLANE ( 'NONE',  #277 ) ;
#47 = EDGE_CURVE ( 'NONE', #10, #255, #155, .T. ) ;
#48 = PRODUCT_RELATED_PRODUCT_CATEGORY ( 'part', '', ( #341 ) ) ;
#49 = DIRECTION ( 'NONE',  ( -0.000000000000000000, -0.000000000000000000, -1.000000000000000000 ) ) ;
#50 = EDGE_CURVE ( 'NONE', #259, #161, #234, .T. ) ;
#51 = EDGE_CURVE ( 'NONE', #142, #229, #316, .T. ) ;
#52 = VECTOR ( 'NONE', #279, 39.37007874015748854 ) ;
#53 = FILL_AREA_STYLE_COLOUR ( '', #148 ) ;
#54 = CARTESIAN_POINT ( 'NONE',  ( 0.2222798536380058976, -8.569712686068203092E-17, -0.2500000000000000000 ) ) ;
#55 = DIRECTION ( 'NONE',  ( -1.000000000000000000, -1.536266079084936861E-16, 0.000000000000000000 ) ) ;
#56 = ORIENTED_EDGE ( 'NONE', *, *, #105, .T. ) ;
#57 = VECTOR ( 'NONE', #36, 39.37007874015748143 ) ;
#58 = EDGE_LOOP ( 'NONE', ( #39, #189, #92, #312 ) ) ;
#59 = CARTESIAN_POINT ( 'NONE',  ( 0.1111399268190029627, 0.1925000000000000044, -0.2500000000000000000 ) ) ;
#60 = DIRECTION ( 'NONE',  ( -0.000000000000000000, -0.000000000000000000, -1.000000000000000000 ) ) ;
#61 = CARTESIAN_POINT ( 'NONE',  ( -0.1111399268190028794, 0.1924999999999999212, 0.2500000000000000000 ) ) ;
#62 = LINE ( 'NONE', #328, #52 ) ;
#63 = VECTOR ( 'NONE', #201, 39.37007874015748143 ) ;
#64 = FACE_OUTER_BOUND ( 'NONE', #231, .T. ) ;
#65 = ORIENTED_EDGE ( 'NONE', *, *, #21, .T. ) ;
#66 = CARTESIAN_POINT ( 'NONE',  ( 0.2222798536380058976, -8.569712686068203092E-17, -0.2500000000000000000 ) ) ;
#67 = EDGE_LOOP ( 'NONE', ( #304, #310, #106, #56 ) ) ;
#68 = CARTESIAN_POINT ( 'NONE',  ( -0.1111399268190028655, -0.1925000000000000322, 0.2500000000000000000 ) ) ;
#69 = VERTEX_POINT ( 'NONE', #295 ) ;
#70 = VECTOR ( 'NONE', #174, 39.37007874015748143 ) ;
#71 = EDGE_LOOP ( 'NONE', ( #320, #43, #283, #136 ) ) ;
#72 = DIRECTION ( 'NONE',  ( 1.000000000000000000, 0.000000000000000000, 0.000000000000000000 ) ) ;
#73 = DIRECTION ( 'NONE',  ( -0.8660254037844388186, -0.4999999999999997224, 0.000000000000000000 ) ) ;
#74 = VECTOR ( 'NONE', #122, 39.37007874015748854 ) ;
#75 = CARTESIAN_POINT ( 'NONE',  ( 0.3125000000000000000, 3.827021247335478926E-17, -0.2500000000000000000 ) ) ;
#76 =( LENGTH_UNIT ( ) NAMED_UNIT ( * ) SI_UNIT ( $, .METRE. ) );
#77 = PRESENTATION_LAYER_ASSIGNMENT (  '', '', ( #104 ) ) ;
#78 = VERTEX_POINT ( 'NONE', #236 ) ;
#79 = DIRECTION ( 'NONE',  ( 0.000000000000000000, 0.000000000000000000, 1.000000000000000000 ) ) ;
#80 = CARTESIAN_POINT ( 'NONE',  ( -0.1111399268190028794, -0.1925000000000000044, -0.2500000000000000000 ) ) ;
#81 = ORIENTED_EDGE ( 'NONE', *, *, #168, .T. ) ;
#82 = VECTOR ( 'NONE', #35, 39.37007874015748854 ) ;
#83 = PRODUCT_DEFINITION ( 'UNKNOWN', '', #139, #194 ) ;
#84 = CARTESIAN_POINT ( 'NONE',  ( 0.3125000000000000000, 3.827021247335478926E-17, 0.2500000000000000000 ) ) ;
#85 = ORIENTED_EDGE ( 'NONE', *, *, #50, .F. ) ;
#86 = CARTESIAN_POINT ( 'NONE',  ( 0.2222798536380058976, -8.569712686068203092E-17, 0.2500000000000000000 ) ) ;
#87 = DIMENSIONAL_EXPONENTS ( 1.000000000000000000, 0.000000000000000000, 0.000000000000000000, 0.000000000000000000, 0.000000000000000000, 0.000000000000000000, 0.000000000000000000 ) ;
#88 = CARTESIAN_POINT ( 'NONE',  ( 0.1111399268190029627, 0.1925000000000000044, -0.2500000000000000000 ) ) ;
#89 = CARTESIAN_POINT ( 'NONE',  ( -0.3125000000000000000, 0.000000000000000000, 0.2500000000000000000 ) ) ;
#90 = CIRCLE ( 'NONE', #175, 0.3125000000000000000 ) ;
#91 = DIRECTION ( 'NONE',  ( 1.000000000000000000, 1.536266079084936861E-16, 0.000000000000000000 ) ) ;
#92 = ORIENTED_EDGE ( 'NONE', *, *, #332, .T. ) ;
#93 = CARTESIAN_POINT ( 'NONE',  ( 0.000000000000000000, 0.000000000000000000, 0.2500000000000000000 ) ) ;
#94 = ORIENTED_EDGE ( 'NONE', *, *, #109, .F. ) ;
#95 = ORIENTED_EDGE ( 'NONE', *, *, #21, .F. ) ;
#96 = AXIS2_PLACEMENT_3D ( 'NONE', #227, #282, #40 ) ;
#97 = SURFACE_SIDE_STYLE ('',( #45 ) ) ;
#98 = DIRECTION ( 'NONE',  ( -1.000000000000000000, -3.072532158169873721E-16, 0.000000000000000000 ) ) ;
#99 = DIRECTION ( 'NONE',  ( 1.000000000000000000, 0.000000000000000000, 0.000000000000000000 ) ) ;
#100 = DIRECTION ( 'NONE',  ( -0.000000000000000000, -0.000000000000000000, -1.000000000000000000 ) ) ;
#101 = ADVANCED_FACE ( 'NONE', ( #131 ), #185, .T. ) ;
#102 = MANIFOLD_SOLID_BREP ( 'Boss-Extrude1', #187 ) ;
#103 = DIRECTION ( 'NONE',  ( -1.536266079084936861E-16, 1.000000000000000000, 0.000000000000000000 ) ) ;
#104 = STYLED_ITEM ( 'NONE', ( #179 ), #102 ) ;
#105 = EDGE_CURVE ( 'NONE', #255, #340, #90, .T. ) ;
#106 = ORIENTED_EDGE ( 'NONE', *, *, #47, .T. ) ;
#107 = ADVANCED_FACE ( 'NONE', ( #132 ), #214, .T. ) ;
#108 = CARTESIAN_POINT ( 'NONE',  ( -0.2222798536380058143, 3.123263141623795767E-17, 0.2500000000000000000 ) ) ;
#109 = EDGE_CURVE ( 'NONE', #340, #255, #270, .T. ) ;
#110 = UNCERTAINTY_MEASURE_WITH_UNIT (LENGTH_MEASURE( 1.000000000000000082E-05 ), #177, 'distance_accuracy_value', 'NONE');
#111 = CARTESIAN_POINT ( 'NONE',  ( -0.1111399268190028794, 0.1924999999999999212, 0.2500000000000000000 ) ) ;
#112 = AXIS2_PLACEMENT_3D ( 'NONE', #294, #103, #55 ) ;
#113 = DIRECTION ( 'NONE',  ( -0.000000000000000000, -0.000000000000000000, -1.000000000000000000 ) ) ;
#114 = EDGE_CURVE ( 'NONE', #217, #123, #28, .T. ) ;
#115 = PLANE ( 'NONE',  #293 ) ;
#116 = UNCERTAINTY_MEASURE_WITH_UNIT (LENGTH_MEASURE( 1.000000000000000082E-05 ), #347, 'distance_accuracy_value', 'NONE');
#117 = CARTESIAN_POINT ( 'NONE',  ( -0.1111399268190028655, -0.1925000000000000322, 0.2500000000000000000 ) ) ;
#118 = DIRECTION ( 'NONE',  ( 0.000000000000000000, 0.000000000000000000, 1.000000000000000000 ) ) ;
#119 = DIRECTION ( 'NONE',  ( -0.000000000000000000, -0.000000000000000000, -1.000000000000000000 ) ) ;
#120 = ORIENTED_EDGE ( 'NONE', *, *, #297, .T. ) ;
#121 = VECTOR ( 'NONE', #230, 39.37007874015748854 ) ;
#122 = DIRECTION ( 'NONE',  ( -0.4999999999999997224, 0.8660254037844388186, 0.000000000000000000 ) ) ;
#123 = VERTEX_POINT ( 'NONE', #80 ) ;
#124 = ORIENTED_EDGE ( 'NONE', *, *, #350, .T. ) ;
#125 = FACE_OUTER_BOUND ( 'NONE', #58, .T. ) ;
#126 = AXIS2_PLACEMENT_3D ( 'NONE', #222, #173, #334 ) ;
#127 = CARTESIAN_POINT ( 'NONE',  ( 0.000000000000000000, 0.000000000000000000, 0.000000000000000000 ) ) ;
#128 = FACE_OUTER_BOUND ( 'NONE', #67, .T. ) ;
#129 =( NAMED_UNIT ( * ) SI_UNIT ( $, .STERADIAN. ) SOLID_ANGLE_UNIT ( ) );
#130 = VECTOR ( 'NONE', #49, 39.37007874015748143 ) ;
#131 = FACE_OUTER_BOUND ( 'NONE', #184, .T. ) ;
#132 = FACE_OUTER_BOUND ( 'NONE', #150, .T. ) ;
#133 = EDGE_CURVE ( 'NONE', #224, #340, #269, .T. ) ;
#134 = MECHANICAL_DESIGN_GEOMETRIC_PRESENTATION_REPRESENTATION (  '', ( #305 ), #299 ) ;
#135 = LINE ( 'NONE', #190, #221 ) ;
#136 = ORIENTED_EDGE ( 'NONE', *, *, #220, .T. ) ;
#137 = CARTESIAN_POINT ( 'NONE',  ( -0.2222798536380058143, 3.123263141623795767E-17, -0.2500000000000000000 ) ) ;
#138 = VECTOR ( 'NONE', #192, 39.37007874015748854 ) ;
#139 = PRODUCT_DEFINITION_FORMATION_WITH_SPECIFIED_SOURCE ( 'ANY', '', #341, .NOT_KNOWN. ) ;
#140 = FACE_BOUND ( 'NONE', #271, .T. ) ;
#141 = DIRECTION ( 'NONE',  ( 1.000000000000000000, 0.000000000000000000, 0.000000000000000000 ) ) ;
#142 = VERTEX_POINT ( 'NONE', #298 ) ;
#143 = ADVANCED_FACE ( 'NONE', ( #125 ), #46, .T. ) ;
#144 = DIRECTION ( 'NONE',  ( -0.4999999999999998335, 0.8660254037844388186, 0.000000000000000000 ) ) ;
#145 = ORIENTED_EDGE ( 'NONE', *, *, #133, .T. ) ;
#146 = LINE ( 'NONE', #111, #138 ) ;
#147 = ORIENTED_EDGE ( 'NONE', *, *, #339, .F. ) ;
#148 = COLOUR_RGB ( '',0.8666666666666666963, 0.9098039215686274384, 1.000000000000000000 ) ;
#149 =( CONVERSION_BASED_UNIT ( 'INCH', #345 ) LENGTH_UNIT ( ) NAMED_UNIT ( #228 ) );
#150 = EDGE_LOOP ( 'NONE', ( #85, #202, #172, #120 ) ) ;
#151 = ORIENTED_EDGE ( 'NONE', *, *, #31, .T. ) ;
#152 = PRESENTATION_STYLE_ASSIGNMENT (( #315 ) ) ;
#153 = CARTESIAN_POINT ( 'NONE',  ( -0.1111399268190028794, 0.1924999999999999212, 0.2500000000000000000 ) ) ;
#154 = SHAPE_DEFINITION_REPRESENTATION ( #302, #338 ) ;
#155 = LINE ( 'NONE', #24, #261 ) ;
#156 = LENGTH_MEASURE_WITH_UNIT ( LENGTH_MEASURE( 0.02539999999999999897 ), #287 );
#157 = ADVANCED_FACE ( 'NONE', ( #128 ), #207, .T. ) ;
#158 = VECTOR ( 'NONE', #113, 39.37007874015748143 ) ;
#159 = ORIENTED_EDGE ( 'NONE', *, *, #267, .F. ) ;
#160 = DIRECTION ( 'NONE',  ( 1.000000000000000000, 0.000000000000000000, 0.000000000000000000 ) ) ;
#161 = VERTEX_POINT ( 'NONE', #59 ) ;
#162 = ORIENTED_EDGE ( 'NONE', *, *, #114, .T. ) ;
#163 = LINE ( 'NONE', #219, #158 ) ;
#164 = PLANE ( 'NONE',  #22 ) ;
#165 = ORIENTED_EDGE ( 'NONE', *, *, #266, .F. ) ;
#166 = FACE_OUTER_BOUND ( 'NONE', #71, .T. ) ;
#167 = EDGE_LOOP ( 'NONE', ( #18, #94 ) ) ;
#168 = EDGE_CURVE ( 'NONE', #6, #272, #333, .T. ) ;
#169 = LINE ( 'NONE', #68, #324 ) ;
#170 = DIRECTION ( 'NONE',  ( -0.000000000000000000, -0.000000000000000000, -1.000000000000000000 ) ) ;
#171 = CARTESIAN_POINT ( 'NONE',  ( -0.2222798536380058143, 3.123263141623795767E-17, 0.2500000000000000000 ) ) ;
#172 = ORIENTED_EDGE ( 'NONE', *, *, #339, .T. ) ;
#173 = DIRECTION ( 'NONE',  ( 0.000000000000000000, 0.000000000000000000, 1.000000000000000000 ) ) ;
#174 = DIRECTION ( 'NONE',  ( -1.000000000000000000, -3.072532158169873721E-16, 0.000000000000000000 ) ) ;
#175 = AXIS2_PLACEMENT_3D ( 'NONE', #3, #26, #72 ) ;
#176 = ORIENTED_EDGE ( 'NONE', *, *, #109, .T. ) ;
#177 =( CONVERSION_BASED_UNIT ( 'INCH', #186 ) LENGTH_UNIT ( ) NAMED_UNIT ( #87 ) );
#178 = APPLICATION_PROTOCOL_DEFINITION ( 'draft international standard', 'automotive_design', 1998, #239 ) ;
#179 = PRESENTATION_STYLE_ASSIGNMENT (( #213 ) ) ;
#180 = FILL_AREA_STYLE_COLOUR ( '', #235 ) ;
#181 = DIRECTION ( 'NONE',  ( 1.000000000000000000, 0.000000000000000000, 0.000000000000000000 ) ) ;
#182 = EDGE_CURVE ( 'NONE', #69, #217, #276, .T. ) ;
#183 = AXIS2_PLACEMENT_3D ( 'NONE', #251, #118, #226 ) ;
#184 = EDGE_LOOP ( 'NONE', ( #159, #257, #191, #151 ) ) ;
#185 = PLANE ( 'NONE',  #112 ) ;
#186 = LENGTH_MEASURE_WITH_UNIT ( LENGTH_MEASURE( 0.02539999999999999897 ), #76 );
#187 = CLOSED_SHELL ( 'NONE', ( #233, #209, #25, #157, #101, #249, #107, #319, #143, #273 ) ) ;
#188 = AXIS2_PLACEMENT_3D ( 'NONE', #346, #79, #160 ) ;
#189 = ORIENTED_EDGE ( 'NONE', *, *, #220, .F. ) ;
#190 = CARTESIAN_POINT ( 'NONE',  ( 0.1111399268190030043, -0.1925000000000000044, -0.2500000000000000000 ) ) ;
#191 = ORIENTED_EDGE ( 'NONE', *, *, #238, .T. ) ;
#192 = DIRECTION ( 'NONE',  ( -0.5000000000000000000, -0.8660254037844385966, 0.000000000000000000 ) ) ;
#193 = PLANE ( 'NONE',  #183 ) ;
#194 = PRODUCT_DEFINITION_CONTEXT ( 'detailed design', #239, 'design' ) ;
#195 = LINE ( 'NONE', #306, #197 ) ;
#196 = LINE ( 'NONE', #307, #263 ) ;
#197 = VECTOR ( 'NONE', #303, 39.37007874015748143 ) ;
#198 = CARTESIAN_POINT ( 'NONE',  ( -0.1111399268190028794, 0.1924999999999999212, -0.2500000000000000000 ) ) ;
#199 = FACE_OUTER_BOUND ( 'NONE', #232, .T. ) ;
#200 = ORIENTED_EDGE ( 'NONE', *, *, #50, .T. ) ;
#201 = DIRECTION ( 'NONE',  ( -0.000000000000000000, -0.000000000000000000, -1.000000000000000000 ) ) ;
#202 = ORIENTED_EDGE ( 'NONE', *, *, #264, .F. ) ;
#203 = CARTESIAN_POINT ( 'NONE',  ( -0.1111399268190028794, 0.1924999999999999212, -0.2500000000000000000 ) ) ;
#204 = AXIS2_PLACEMENT_3D ( 'NONE', #300, #32, #280 ) ;
#205 = CARTESIAN_POINT ( 'NONE',  ( -0.1111399268190028655, -0.1925000000000000322, 0.2500000000000000000 ) ) ;
#206 = APPLICATION_PROTOCOL_DEFINITION ( 'draft international standard', 'automotive_design', 1998, #218 ) ;
#207 = CYLINDRICAL_SURFACE ( 'NONE', #204, 0.3125000000000000000 ) ;
#208 = EDGE_CURVE ( 'NONE', #69, #272, #163, .T. ) ;
#209 = ADVANCED_FACE ( 'NONE', ( #8, #140 ), #248, .T. ) ;
#210 = CARTESIAN_POINT ( 'NONE',  ( 0.000000000000000000, 0.000000000000000000, 0.2500000000000000000 ) ) ;
#211 = EDGE_CURVE ( 'NONE', #224, #10, #243, .T. ) ;
#212 = AXIS2_PLACEMENT_3D ( 'NONE', #321, #73, #242 ) ;
#213 = SURFACE_STYLE_USAGE ( .BOTH. , #351 ) ;
#214 = PLANE ( 'NONE',  #212 ) ;
#215 = MECHANICAL_DESIGN_GEOMETRIC_PRESENTATION_REPRESENTATION (  '', ( #104 ), #240 ) ;
#216 = VERTEX_POINT ( 'NONE', #225 ) ;
#217 = VERTEX_POINT ( 'NONE', #117 ) ;
#218 = APPLICATION_CONTEXT ( 'automotive_design' ) ;
#219 = CARTESIAN_POINT ( 'NONE',  ( -0.2222798536380058143, 3.123263141623795767E-17, 0.2500000000000000000 ) ) ;
#220 = EDGE_CURVE ( 'NONE', #229, #6, #301, .T. ) ;
#221 = VECTOR ( 'NONE', #250, 39.37007874015748854 ) ;
#222 = CARTESIAN_POINT ( 'NONE',  ( 0.000000000000000000, 0.000000000000000000, 0.2500000000000000000 ) ) ;
#223 = LINE ( 'NONE', #244, #7 ) ;
#224 = VERTEX_POINT ( 'NONE', #84 ) ;
#225 = CARTESIAN_POINT ( 'NONE',  ( 0.1111399268190030043, -0.1925000000000000044, 0.2500000000000000000 ) ) ;
#226 = DIRECTION ( 'NONE',  ( 1.000000000000000000, 0.000000000000000000, -0.000000000000000000 ) ) ;
#227 = CARTESIAN_POINT ( 'NONE',  ( 0.1111399268190029627, 0.1925000000000000044, 0.2500000000000000000 ) ) ;
#228 = DIMENSIONAL_EXPONENTS ( 1.000000000000000000, 0.000000000000000000, 0.000000000000000000, 0.000000000000000000, 0.000000000000000000, 0.000000000000000000, 0.000000000000000000 ) ;
#229 = VERTEX_POINT ( 'NONE', #61 ) ;
#230 = DIRECTION ( 'NONE',  ( 0.4999999999999998335, -0.8660254037844388186, 0.000000000000000000 ) ) ;
#231 = EDGE_LOOP ( 'NONE', ( #281, #275, #34, #162 ) ) ;
#232 = EDGE_LOOP ( 'NONE', ( #335, #145, #176, #41 ) ) ;
#233 = ADVANCED_FACE ( 'NONE', ( #199 ), #308, .T. ) ;
#234 = LINE ( 'NONE', #54, #13 ) ;
#235 = COLOUR_RGB ( '',0.8666666666666666963, 0.9098039215686274384, 1.000000000000000000 ) ;
#236 = CARTESIAN_POINT ( 'NONE',  ( 0.1111399268190030043, -0.1925000000000000044, -0.2500000000000000000 ) ) ;
#237 = EDGE_CURVE ( 'NONE', #272, #123, #330, .T. ) ;
#238 = EDGE_CURVE ( 'NONE', #217, #216, #169, .T. ) ;
#239 = APPLICATION_CONTEXT ( 'automotive_design' ) ;
#240 =( GEOMETRIC_REPRESENTATION_CONTEXT ( 3 ) GLOBAL_UNCERTAINTY_ASSIGNED_CONTEXT ( ( #110 ) ) GLOBAL_UNIT_ASSIGNED_CONTEXT ( ( #177, #314, #344 ) ) REPRESENTATION_CONTEXT ( 'NONE', 'WORKASPACE' ) );
#241 = DIRECTION ( 'NONE',  ( -0.000000000000000000, -0.000000000000000000, -1.000000000000000000 ) ) ;
#242 = DIRECTION ( 'NONE',  ( 0.4999999999999997224, -0.8660254037844388186, 0.000000000000000000 ) ) ;
#243 = CIRCLE ( 'NONE', #285, 0.3125000000000000000 ) ;
#244 = CARTESIAN_POINT ( 'NONE',  ( 0.1111399268190029627, 0.1925000000000000044, 0.2500000000000000000 ) ) ;
#245 = VECTOR ( 'NONE', #4, 39.37007874015748854 ) ;
#246 = AXIS2_PLACEMENT_3D ( 'NONE', #127, #16, #99 ) ;
#247 = DIRECTION ( 'NONE',  ( -1.000000000000000000, 0.000000000000000000, 0.000000000000000000 ) ) ;
#248 = PLANE ( 'NONE',  #126 ) ;
#249 = ADVANCED_FACE ( 'NONE', ( #284 ), #164, .T. ) ;
#250 = DIRECTION ( 'NONE',  ( 0.4999999999999998890, 0.8660254037844385966, 0.000000000000000000 ) ) ;
#251 = CARTESIAN_POINT ( 'NONE',  ( 0.000000000000000000, 0.000000000000000000, -0.2500000000000000000 ) ) ;
#252 = LINE ( 'NONE', #33, #63 ) ;
#253 = ORIENTED_EDGE ( 'NONE', *, *, #238, .F. ) ;
#254 = CARTESIAN_POINT ( 'NONE',  ( -0.1111399268190028794, 0.1924999999999999212, 0.2500000000000000000 ) ) ;
#255 = VERTEX_POINT ( 'NONE', #325 ) ;
#256 = AXIS2_PLACEMENT_3D ( 'NONE', #93, #60, #247 ) ;
#257 = ORIENTED_EDGE ( 'NONE', *, *, #114, .F. ) ;
#258 = PRODUCT_CONTEXT ( 'NONE', #218, 'mechanical' ) ;
#259 = VERTEX_POINT ( 'NONE', #66 ) ;
#260 = DIRECTION ( 'NONE',  ( 0.8660254037844387076, -0.5000000000000001110, 0.000000000000000000 ) ) ;
#261 = VECTOR ( 'NONE', #241, 39.37007874015748143 ) ;
#262 = CARTESIAN_POINT ( 'NONE',  ( 0.1111399268190029627, 0.1925000000000000044, 0.2500000000000000000 ) ) ;
#263 = VECTOR ( 'NONE', #170, 39.37007874015748143 ) ;
#264 = EDGE_CURVE ( 'NONE', #286, #259, #252, .T. ) ;
#265 = SURFACE_STYLE_FILL_AREA ( #1 ) ;
#266 = EDGE_CURVE ( 'NONE', #78, #259, #135, .T. ) ;
#267 = EDGE_CURVE ( 'NONE', #123, #78, #195, .T. ) ;
#268 = EDGE_LOOP ( 'NONE', ( #124, #326 ) ) ;
#269 = LINE ( 'NONE', #323, #349 ) ;
#270 = CIRCLE ( 'NONE', #188, 0.3125000000000000000 ) ;
#271 = EDGE_LOOP ( 'NONE', ( #95, #253, #2, #12, #27, #147 ) ) ;
#272 = VERTEX_POINT ( 'NONE', #137 ) ;
#273 = ADVANCED_FACE ( 'NONE', ( #64 ), #115, .T. ) ;
#274 = DIRECTION ( 'NONE',  ( -0.8660254037844387076, 0.4999999999999999445, 0.000000000000000000 ) ) ;
#275 = ORIENTED_EDGE ( 'NONE', *, *, #208, .F. ) ;
#276 = LINE ( 'NONE', #108, #82 ) ;
#277 = AXIS2_PLACEMENT_3D ( 'NONE', #153, #260, #19 ) ;
#278 = CARTESIAN_POINT ( 'NONE',  ( -0.2222798536380058143, 3.123263141623795767E-17, -0.2500000000000000000 ) ) ;
#279 = DIRECTION ( 'NONE',  ( 0.4999999999999998890, 0.8660254037844385966, 0.000000000000000000 ) ) ;
#280 = DIRECTION ( 'NONE',  ( -1.000000000000000000, 0.000000000000000000, 0.000000000000000000 ) ) ;
#281 = ORIENTED_EDGE ( 'NONE', *, *, #237, .F. ) ;
#282 = DIRECTION ( 'NONE',  ( 3.072532158169873721E-16, -1.000000000000000000, 0.000000000000000000 ) ) ;
#283 = ORIENTED_EDGE ( 'NONE', *, *, #51, .T. ) ;
#284 = FACE_OUTER_BOUND ( 'NONE', #331, .T. ) ;
#285 = AXIS2_PLACEMENT_3D ( 'NONE', #327, #9, #141 ) ;
#286 = VERTEX_POINT ( 'NONE', #11 ) ;
#287 =( LENGTH_UNIT ( ) NAMED_UNIT ( * ) SI_UNIT ( $, .METRE. ) );
#288 = FACE_OUTER_BOUND ( 'NONE', #167, .T. ) ;
#289 = FILL_AREA_STYLE ('',( #180 ) ) ;
#290 = DIRECTION ( 'NONE',  ( -0.4999999999999997224, 0.8660254037844388186, 0.000000000000000000 ) ) ;
#291 =( NAMED_UNIT ( * ) PLANE_ANGLE_UNIT ( ) SI_UNIT ( $, .RADIAN. ) );
#292 = CIRCLE ( 'NONE', #343, 0.3125000000000000000 ) ;
#293 = AXIS2_PLACEMENT_3D ( 'NONE', #171, #38, #144 ) ;
#294 = CARTESIAN_POINT ( 'NONE',  ( -0.1111399268190028655, -0.1925000000000000322, 0.2500000000000000000 ) ) ;
#295 = CARTESIAN_POINT ( 'NONE',  ( -0.2222798536380058143, 3.414809992080329023E-17, 0.2500000000000000000 ) ) ;
#296 = ORIENTED_EDGE ( 'NONE', *, *, #264, .T. ) ;
#297 = EDGE_CURVE ( 'NONE', #142, #161, #223, .T. ) ;
#298 = CARTESIAN_POINT ( 'NONE',  ( 0.1111399268190029627, 0.1925000000000000044, 0.2500000000000000000 ) ) ;
#299 =( GEOMETRIC_REPRESENTATION_CONTEXT ( 3 ) GLOBAL_UNCERTAINTY_ASSIGNED_CONTEXT ( ( #329 ) ) GLOBAL_UNIT_ASSIGNED_CONTEXT ( ( #149, #20, #129 ) ) REPRESENTATION_CONTEXT ( 'NONE', 'WORKASPACE' ) );
#300 = CARTESIAN_POINT ( 'NONE',  ( 0.000000000000000000, 0.000000000000000000, 0.2500000000000000000 ) ) ;
#301 = LINE ( 'NONE', #254, #57 ) ;
#302 = PRODUCT_DEFINITION_SHAPE ( 'NONE', 'NONE',  #83 ) ;
#303 = DIRECTION ( 'NONE',  ( 1.000000000000000000, 1.536266079084936861E-16, 0.000000000000000000 ) ) ;
#304 = ORIENTED_EDGE ( 'NONE', *, *, #133, .F. ) ;
#305 = STYLED_ITEM ( 'NONE', ( #152 ), #338 ) ;
#306 = CARTESIAN_POINT ( 'NONE',  ( -0.1111399268190028655, -0.1925000000000000322, -0.2500000000000000000 ) ) ;
#307 = CARTESIAN_POINT ( 'NONE',  ( 0.1111399268190030043, -0.1925000000000000044, 0.2500000000000000000 ) ) ;
#308 = CYLINDRICAL_SURFACE ( 'NONE', #256, 0.3125000000000000000 ) ;
#309 = DIMENSIONAL_EXPONENTS ( 1.000000000000000000, 0.000000000000000000, 0.000000000000000000, 0.000000000000000000, 0.000000000000000000, 0.000000000000000000, 0.000000000000000000 ) ;
#310 = ORIENTED_EDGE ( 'NONE', *, *, #350, .F. ) ;
#311 = CARTESIAN_POINT ( 'NONE',  ( 0.1111399268190030043, -0.1925000000000000044, 0.2500000000000000000 ) ) ;
#312 = ORIENTED_EDGE ( 'NONE', *, *, #208, .T. ) ;
#313 = EDGE_LOOP ( 'NONE', ( #322, #17, #200, #30, #81, #337 ) ) ;
#314 =( NAMED_UNIT ( * ) PLANE_ANGLE_UNIT ( ) SI_UNIT ( $, .RADIAN. ) );
#315 = SURFACE_STYLE_USAGE ( .BOTH. , #97 ) ;
#316 = LINE ( 'NONE', #262, #42 ) ;
#317 = DIRECTION ( 'NONE',  ( 0.000000000000000000, 0.000000000000000000, 1.000000000000000000 ) ) ;
#318 =( LENGTH_UNIT ( ) NAMED_UNIT ( * ) SI_UNIT ( $, .METRE. ) );
#319 = ADVANCED_FACE ( 'NONE', ( #166 ), #5, .T. ) ;
#320 = ORIENTED_EDGE ( 'NONE', *, *, #23, .F. ) ;
#321 = CARTESIAN_POINT ( 'NONE',  ( 0.2222798536380058976, -8.569712686068203092E-17, 0.2500000000000000000 ) ) ;
#322 = ORIENTED_EDGE ( 'NONE', *, *, #267, .T. ) ;
#323 = CARTESIAN_POINT ( 'NONE',  ( 0.3125000000000000000, 3.827021247335478926E-17, 0.2500000000000000000 ) ) ;
#324 = VECTOR ( 'NONE', #91, 39.37007874015748143 ) ;
#325 = CARTESIAN_POINT ( 'NONE',  ( -0.3125000000000000000, 0.000000000000000000, -0.2500000000000000000 ) ) ;
#326 = ORIENTED_EDGE ( 'NONE', *, *, #211, .T. ) ;
#327 = CARTESIAN_POINT ( 'NONE',  ( 0.000000000000000000, 0.000000000000000000, 0.2500000000000000000 ) ) ;
#328 = CARTESIAN_POINT ( 'NONE',  ( 0.1111399268190030043, -0.1925000000000000044, 0.2500000000000000000 ) ) ;
#329 = UNCERTAINTY_MEASURE_WITH_UNIT (LENGTH_MEASURE( 1.000000000000000082E-05 ), #149, 'distance_accuracy_value', 'NONE');
#330 = LINE ( 'NONE', #278, #121 ) ;
#331 = EDGE_LOOP ( 'NONE', ( #165, #15, #65, #296 ) ) ;
#332 = EDGE_CURVE ( 'NONE', #229, #69, #146, .T. ) ;
#333 = LINE ( 'NONE', #198, #245 ) ;
#334 = DIRECTION ( 'NONE',  ( 1.000000000000000000, 0.000000000000000000, -0.000000000000000000 ) ) ;
#335 = ORIENTED_EDGE ( 'NONE', *, *, #211, .F. ) ;
#336 = DIRECTION ( 'NONE',  ( -0.4999999999999998890, -0.8660254037844385966, 0.000000000000000000 ) ) ;
#337 = ORIENTED_EDGE ( 'NONE', *, *, #237, .T. ) ;
#338 = ADVANCED_BREP_SHAPE_REPRESENTATION ( 'WCP-0959 Rev1', ( #102, #246 ), #29 ) ;
#339 = EDGE_CURVE ( 'NONE', #286, #142, #14, .T. ) ;
#340 = VERTEX_POINT ( 'NONE', #75 ) ;
#341 = PRODUCT ( 'WCP-0959 Rev1', 'WCP-0959 Rev1', '', ( #258 ) ) ;
#342 =( NAMED_UNIT ( * ) SI_UNIT ( $, .STERADIAN. ) SOLID_ANGLE_UNIT ( ) );
#343 = AXIS2_PLACEMENT_3D ( 'NONE', #210, #317, #181 ) ;
#344 =( NAMED_UNIT ( * ) SI_UNIT ( $, .STERADIAN. ) SOLID_ANGLE_UNIT ( ) );
#345 = LENGTH_MEASURE_WITH_UNIT ( LENGTH_MEASURE( 0.02539999999999999897 ), #318 );
#346 = CARTESIAN_POINT ( 'NONE',  ( 0.000000000000000000, 0.000000000000000000, -0.2500000000000000000 ) ) ;
#347 =( CONVERSION_BASED_UNIT ( 'INCH', #156 ) LENGTH_UNIT ( ) NAMED_UNIT ( #309 ) );
#348 = PRESENTATION_LAYER_ASSIGNMENT (  '', '', ( #305 ) ) ;
#349 = VECTOR ( 'NONE', #100, 39.37007874015748143 ) ;
#350 = EDGE_CURVE ( 'NONE', #10, #224, #292, .T. ) ;
#351 = SURFACE_SIDE_STYLE ('',( #265 ) ) ;
ENDSEC;
END-ISO-10303-21;
