ISO-10303-21;
HEADER;
FILE_DESCRIPTION (( 'STEP AP214' ),
    '1' );
FILE_NAME ('WCP-0958 Rev1.step',
    '2024-04-11T00:55:17',
    ( '' ),
    ( '' ),
    'SwSTEP 2.0',
    'SolidWorks 2022',
    '' );
FILE_SCHEMA (( 'AUTOMOTIVE_DESIGN' ));
ENDSEC;

DATA;
#1 = DIRECTION ( 'NONE',  ( 0.4999999999999998335, -0.8660254037844388186, 0.000000000000000000 ) ) ;
#2 = AXIS2_PLACEMENT_3D ( 'NONE', #349, #112, #264 ) ;
#3 = CARTESIAN_POINT ( 'NONE',  ( -0.1111399268190028655, -0.1925000000000000322, 0.1250000000000000000 ) ) ;
#4 = FILL_AREA_STYLE_COLOUR ( '', #187 ) ;
#5 = CARTESIAN_POINT ( 'NONE',  ( -0.2222798536380058143, 3.414809992080329023E-17, 0.1250000000000000000 ) ) ;
#6 = LENGTH_MEASURE_WITH_UNIT ( LENGTH_MEASURE( 0.02539999999999999897 ), #148 );
#7 = EDGE_CURVE ( 'NONE', #103, #54, #249, .T. ) ;
#8 =( GEOMETRIC_REPRESENTATION_CONTEXT ( 3 ) GLOBAL_UNCERTAINTY_ASSIGNED_CONTEXT ( ( #227 ) ) GLOBAL_UNIT_ASSIGNED_CONTEXT ( ( #81, #57, #162 ) ) REPRESENTATION_CONTEXT ( 'NONE', 'WORKASPACE' ) );
#9 = CARTESIAN_POINT ( 'NONE',  ( -0.1111399268190028794, 0.1924999999999999212, 0.1250000000000000000 ) ) ;
#10 =( NAMED_UNIT ( * ) SI_UNIT ( $, .STERADIAN. ) SOLID_ANGLE_UNIT ( ) );
#11 = COLOUR_RGB ( '',0.8666666666666666963, 0.9098039215686274384, 1.000000000000000000 ) ;
#12 = UNCERTAINTY_MEASURE_WITH_UNIT (LENGTH_MEASURE( 1.000000000000000082E-05 ), #253, 'distance_accuracy_value', 'NONE');
#13 = DIRECTION ( 'NONE',  ( -0.000000000000000000, -0.000000000000000000, -1.000000000000000000 ) ) ;
#14 = ORIENTED_EDGE ( 'NONE', *, *, #7, .T. ) ;
#15 = LINE ( 'NONE', #232, #208 ) ;
#16 = VERTEX_POINT ( 'NONE', #190 ) ;
#17 = FACE_BOUND ( 'NONE', #181, .T. ) ;
#18 = ORIENTED_EDGE ( 'NONE', *, *, #184, .T. ) ;
#19 = CLOSED_SHELL ( 'NONE', ( #153, #149, #88, #224, #42, #111, #211, #258, #75, #128 ) ) ;
#20 = PLANE ( 'NONE',  #295 ) ;
#21 = ORIENTED_EDGE ( 'NONE', *, *, #334, .T. ) ;
#22 = EDGE_CURVE ( 'NONE', #107, #86, #351, .T. ) ;
#23 = DIRECTION ( 'NONE',  ( 1.000000000000000000, 1.536266079084936861E-16, 0.000000000000000000 ) ) ;
#24 = LINE ( 'NONE', #59, #306 ) ;
#25 = ORIENTED_EDGE ( 'NONE', *, *, #41, .T. ) ;
#26 = CARTESIAN_POINT ( 'NONE',  ( 0.1111399268190030043, -0.1925000000000000044, 0.1250000000000000000 ) ) ;
#27 = EDGE_CURVE ( 'NONE', #82, #16, #301, .T. ) ;
#28 = DIRECTION ( 'NONE',  ( 3.072532158169873721E-16, -1.000000000000000000, 0.000000000000000000 ) ) ;
#29 = LINE ( 'NONE', #38, #193 ) ;
#30 =( GEOMETRIC_REPRESENTATION_CONTEXT ( 3 ) GLOBAL_UNCERTAINTY_ASSIGNED_CONTEXT ( ( #222 ) ) GLOBAL_UNIT_ASSIGNED_CONTEXT ( ( #332, #91, #10 ) ) REPRESENTATION_CONTEXT ( 'NONE', 'WORKASPACE' ) );
#31 = FACE_OUTER_BOUND ( 'NONE', #70, .T. ) ;
#32 = ORIENTED_EDGE ( 'NONE', *, *, #22, .F. ) ;
#33 = DIRECTION ( 'NONE',  ( -0.000000000000000000, -0.000000000000000000, -1.000000000000000000 ) ) ;
#34 = DIRECTION ( 'NONE',  ( -0.4999999999999997224, 0.8660254037844388186, 0.000000000000000000 ) ) ;
#35 = VERTEX_POINT ( 'NONE', #144 ) ;
#36 = VECTOR ( 'NONE', #123, 39.37007874015748143 ) ;
#37 =( NAMED_UNIT ( * ) PLANE_ANGLE_UNIT ( ) SI_UNIT ( $, .RADIAN. ) );
#38 = CARTESIAN_POINT ( 'NONE',  ( 0.2222798536380058976, -8.569712686068203092E-17, 0.1250000000000000000 ) ) ;
#39 = SHAPE_DEFINITION_REPRESENTATION ( #194, #320 ) ;
#40 = PRESENTATION_LAYER_ASSIGNMENT (  '', '', ( #339 ) ) ;
#41 = EDGE_CURVE ( 'NONE', #133, #16, #276, .T. ) ;
#42 = ADVANCED_FACE ( 'NONE', ( #113 ), #63, .T. ) ;
#43 = DIMENSIONAL_EXPONENTS ( 1.000000000000000000, 0.000000000000000000, 0.000000000000000000, 0.000000000000000000, 0.000000000000000000, 0.000000000000000000, 0.000000000000000000 ) ;
#44 = ORIENTED_EDGE ( 'NONE', *, *, #48, .F. ) ;
#45 = CARTESIAN_POINT ( 'NONE',  ( -0.1111399268190028794, 0.1924999999999999212, 0.1250000000000000000 ) ) ;
#46 = ORIENTED_EDGE ( 'NONE', *, *, #27, .T. ) ;
#47 = FACE_OUTER_BOUND ( 'NONE', #206, .T. ) ;
#48 = EDGE_CURVE ( 'NONE', #202, #126, #67, .T. ) ;
#49 = ORIENTED_EDGE ( 'NONE', *, *, #94, .F. ) ;
#50 = DIRECTION ( 'NONE',  ( -0.000000000000000000, -0.000000000000000000, -1.000000000000000000 ) ) ;
#51 = EDGE_LOOP ( 'NONE', ( #32, #49, #159, #209 ) ) ;
#52 = AXIS2_PLACEMENT_3D ( 'NONE', #245, #272, #139 ) ;
#53 = CARTESIAN_POINT ( 'NONE',  ( -0.1111399268190028655, -0.1925000000000000322, 0.1250000000000000000 ) ) ;
#54 = VERTEX_POINT ( 'NONE', #5 ) ;
#55 = LINE ( 'NONE', #165, #173 ) ;
#56 = FILL_AREA_STYLE ('',( #4 ) ) ;
#57 =( NAMED_UNIT ( * ) PLANE_ANGLE_UNIT ( ) SI_UNIT ( $, .RADIAN. ) );
#58 = AXIS2_PLACEMENT_3D ( 'NONE', #195, #65, #172 ) ;
#59 = CARTESIAN_POINT ( 'NONE',  ( 0.1111399268190030043, -0.1925000000000000044, 0.1250000000000000000 ) ) ;
#60 = DIRECTION ( 'NONE',  ( 0.5000000000000000000, 0.8660254037844385966, 0.000000000000000000 ) ) ;
#61 = DIRECTION ( 'NONE',  ( -0.5000000000000000000, -0.8660254037844385966, 0.000000000000000000 ) ) ;
#62 = CARTESIAN_POINT ( 'NONE',  ( -0.1111399268190028794, 0.1924999999999999212, 0.1250000000000000000 ) ) ;
#63 = PLANE ( 'NONE',  #52 ) ;
#64 = STYLED_ITEM ( 'NONE', ( #304 ), #320 ) ;
#65 = DIRECTION ( 'NONE',  ( 0.000000000000000000, 0.000000000000000000, 1.000000000000000000 ) ) ;
#66 = DIMENSIONAL_EXPONENTS ( 1.000000000000000000, 0.000000000000000000, 0.000000000000000000, 0.000000000000000000, 0.000000000000000000, 0.000000000000000000, 0.000000000000000000 ) ;
#67 = CIRCLE ( 'NONE', #216, 0.3125000000000000000 ) ;
#68 =( LENGTH_UNIT ( ) NAMED_UNIT ( * ) SI_UNIT ( $, .METRE. ) );
#69 = LINE ( 'NONE', #282, #136 ) ;
#70 = EDGE_LOOP ( 'NONE', ( #105, #231, #310, #204 ) ) ;
#71 = EDGE_CURVE ( 'NONE', #82, #257, #29, .T. ) ;
#72 = CARTESIAN_POINT ( 'NONE',  ( 0.1111399268190030043, -0.1925000000000000044, -0.1250000000000000000 ) ) ;
#73 = ORIENTED_EDGE ( 'NONE', *, *, #307, .F. ) ;
#74 = CARTESIAN_POINT ( 'NONE',  ( 0.1111399268190029627, 0.1925000000000000044, -0.1250000000000000000 ) ) ;
#75 = ADVANCED_FACE ( 'NONE', ( #137 ), #120, .T. ) ;
#76 = ORIENTED_EDGE ( 'NONE', *, *, #207, .T. ) ;
#77 = LINE ( 'NONE', #292, #115 ) ;
#78 = ORIENTED_EDGE ( 'NONE', *, *, #124, .T. ) ;
#79 = AXIS2_PLACEMENT_3D ( 'NONE', #347, #28, #318 ) ;
#80 = ORIENTED_EDGE ( 'NONE', *, *, #297, .T. ) ;
#81 =( CONVERSION_BASED_UNIT ( 'INCH', #321 ) LENGTH_UNIT ( ) NAMED_UNIT ( #43 ) );
#82 = VERTEX_POINT ( 'NONE', #140 ) ;
#83 = LINE ( 'NONE', #186, #150 ) ;
#84 = CARTESIAN_POINT ( 'NONE',  ( 0.000000000000000000, 0.000000000000000000, -0.1250000000000000000 ) ) ;
#85 = EDGE_CURVE ( 'NONE', #54, #151, #169, .T. ) ;
#86 = VERTEX_POINT ( 'NONE', #114 ) ;
#87 = MANIFOLD_SOLID_BREP ( 'Boss-Extrude1', #19 ) ;
#88 = ADVANCED_FACE ( 'NONE', ( #157, #17 ), #260, .F. ) ;
#89 = ORIENTED_EDGE ( 'NONE', *, *, #85, .F. ) ;
#90 = VECTOR ( 'NONE', #50, 39.37007874015748143 ) ;
#91 =( NAMED_UNIT ( * ) PLANE_ANGLE_UNIT ( ) SI_UNIT ( $, .RADIAN. ) );
#92 = LENGTH_MEASURE_WITH_UNIT ( LENGTH_MEASURE( 0.02539999999999999897 ), #68 );
#93 = PRODUCT_DEFINITION_CONTEXT ( 'detailed design', #233, 'design' ) ;
#94 = EDGE_CURVE ( 'NONE', #54, #107, #266, .T. ) ;
#95 = SURFACE_STYLE_USAGE ( .BOTH. , #329 ) ;
#96 = AXIS2_PLACEMENT_3D ( 'NONE', #130, #239, #316 ) ;
#97 = LINE ( 'NONE', #9, #36 ) ;
#98 = DIRECTION ( 'NONE',  ( -0.000000000000000000, -0.000000000000000000, -1.000000000000000000 ) ) ;
#99 = EDGE_CURVE ( 'NONE', #35, #133, #200, .T. ) ;
#100 = CARTESIAN_POINT ( 'NONE',  ( 0.000000000000000000, 0.000000000000000000, 0.1250000000000000000 ) ) ;
#101 = VERTEX_POINT ( 'NONE', #160 ) ;
#102 = FACE_OUTER_BOUND ( 'NONE', #134, .T. ) ;
#103 = VERTEX_POINT ( 'NONE', #45 ) ;
#104 = DIRECTION ( 'NONE',  ( -0.000000000000000000, -0.000000000000000000, -1.000000000000000000 ) ) ;
#105 = ORIENTED_EDGE ( 'NONE', *, *, #337, .F. ) ;
#106 = PLANE ( 'NONE',  #131 ) ;
#107 = VERTEX_POINT ( 'NONE', #135 ) ;
#108 = EDGE_LOOP ( 'NONE', ( #156, #319, #183, #46 ) ) ;
#109 = PRESENTATION_LAYER_ASSIGNMENT (  '', '', ( #64 ) ) ;
#110 = DIRECTION ( 'NONE',  ( 0.000000000000000000, 0.000000000000000000, 1.000000000000000000 ) ) ;
#111 = ADVANCED_FACE ( 'NONE', ( #342 ), #20, .T. ) ;
#112 = DIRECTION ( 'NONE',  ( -0.000000000000000000, -0.000000000000000000, -1.000000000000000000 ) ) ;
#113 = FACE_OUTER_BOUND ( 'NONE', #322, .T. ) ;
#114 = CARTESIAN_POINT ( 'NONE',  ( -0.1111399268190028794, -0.1925000000000000044, -0.1250000000000000000 ) ) ;
#115 = VECTOR ( 'NONE', #98, 39.37007874015748143 ) ;
#116 = EDGE_CURVE ( 'NONE', #126, #202, #348, .T. ) ;
#117 = EDGE_CURVE ( 'NONE', #174, #101, #256, .T. ) ;
#118 = FACE_OUTER_BOUND ( 'NONE', #255, .T. ) ;
#119 = ORIENTED_EDGE ( 'NONE', *, *, #273, .F. ) ;
#120 = PLANE ( 'NONE',  #240 ) ;
#121 = VECTOR ( 'NONE', #1, 39.37007874015748854 ) ;
#122 = FILL_AREA_STYLE ('',( #302 ) ) ;
#123 = DIRECTION ( 'NONE',  ( -0.000000000000000000, -0.000000000000000000, -1.000000000000000000 ) ) ;
#124 = EDGE_CURVE ( 'NONE', #86, #133, #15, .T. ) ;
#125 = CARTESIAN_POINT ( 'NONE',  ( -0.3125000000000000000, 0.000000000000000000, -0.1250000000000000000 ) ) ;
#126 = VERTEX_POINT ( 'NONE', #235 ) ;
#127 = FACE_OUTER_BOUND ( 'NONE', #51, .T. ) ;
#128 = ADVANCED_FACE ( 'NONE', ( #127 ), #106, .T. ) ;
#129 = ORIENTED_EDGE ( 'NONE', *, *, #288, .F. ) ;
#130 = CARTESIAN_POINT ( 'NONE',  ( 0.000000000000000000, 0.000000000000000000, -0.1250000000000000000 ) ) ;
#131 = AXIS2_PLACEMENT_3D ( 'NONE', #230, #263, #336 ) ;
#132 = ORIENTED_EDGE ( 'NONE', *, *, #273, .T. ) ;
#133 = VERTEX_POINT ( 'NONE', #72 ) ;
#134 = EDGE_LOOP ( 'NONE', ( #76, #80 ) ) ;
#135 = CARTESIAN_POINT ( 'NONE',  ( -0.2222798536380058143, 3.123263141623795767E-17, -0.1250000000000000000 ) ) ;
#136 = VECTOR ( 'NONE', #13, 39.37007874015748143 ) ;
#137 = FACE_OUTER_BOUND ( 'NONE', #328, .T. ) ;
#138 = CARTESIAN_POINT ( 'NONE',  ( -0.3125000000000000000, 0.000000000000000000, 0.1250000000000000000 ) ) ;
#139 = DIRECTION ( 'NONE',  ( -1.000000000000000000, -1.536266079084936861E-16, 0.000000000000000000 ) ) ;
#140 = CARTESIAN_POINT ( 'NONE',  ( 0.2222798536380058976, -8.569712686068203092E-17, 0.1250000000000000000 ) ) ;
#141 = DIRECTION ( 'NONE',  ( 1.000000000000000000, 0.000000000000000000, 0.000000000000000000 ) ) ;
#142 = AXIS2_PLACEMENT_3D ( 'NONE', #175, #345, #285 ) ;
#143 = CARTESIAN_POINT ( 'NONE',  ( -0.1111399268190028655, -0.1925000000000000322, 0.1250000000000000000 ) ) ;
#144 = CARTESIAN_POINT ( 'NONE',  ( 0.1111399268190030043, -0.1925000000000000044, 0.1250000000000000000 ) ) ;
#145 = CARTESIAN_POINT ( 'NONE',  ( 0.1111399268190029627, 0.1925000000000000044, 0.1250000000000000000 ) ) ;
#146 = APPLICATION_CONTEXT ( 'automotive_design' ) ;
#147 = VECTOR ( 'NONE', #192, 39.37007874015748854 ) ;
#148 =( LENGTH_UNIT ( ) NAMED_UNIT ( * ) SI_UNIT ( $, .METRE. ) );
#149 = ADVANCED_FACE ( 'NONE', ( #102, #179 ), #312, .T. ) ;
#150 = VECTOR ( 'NONE', #61, 39.37007874015748854 ) ;
#151 = VERTEX_POINT ( 'NONE', #53 ) ;
#152 = DIRECTION ( 'NONE',  ( -0.8660254037844387076, 0.4999999999999999445, 0.000000000000000000 ) ) ;
#153 = ADVANCED_FACE ( 'NONE', ( #47 ), #340, .T. ) ;
#154 = ORIENTED_EDGE ( 'NONE', *, *, #297, .F. ) ;
#155 = DIRECTION ( 'NONE',  ( 0.000000000000000000, 0.000000000000000000, 1.000000000000000000 ) ) ;
#156 = ORIENTED_EDGE ( 'NONE', *, *, #41, .F. ) ;
#157 = FACE_OUTER_BOUND ( 'NONE', #289, .T. ) ;
#158 = CIRCLE ( 'NONE', #254, 0.3125000000000000000 ) ;
#159 = ORIENTED_EDGE ( 'NONE', *, *, #85, .T. ) ;
#160 = CARTESIAN_POINT ( 'NONE',  ( -0.1111399268190028794, 0.1924999999999999212, -0.1250000000000000000 ) ) ;
#161 = ORIENTED_EDGE ( 'NONE', *, *, #117, .T. ) ;
#162 =( NAMED_UNIT ( * ) SI_UNIT ( $, .STERADIAN. ) SOLID_ANGLE_UNIT ( ) );
#163 = AXIS2_PLACEMENT_3D ( 'NONE', #287, #155, #182 ) ;
#164 = EDGE_CURVE ( 'NONE', #257, #174, #77, .T. ) ;
#165 = CARTESIAN_POINT ( 'NONE',  ( 0.3125000000000000000, 3.827021247335478926E-17, 0.1250000000000000000 ) ) ;
#166 = CARTESIAN_POINT ( 'NONE',  ( 0.2222798536380058976, -8.569712686068203092E-17, 0.1250000000000000000 ) ) ;
#167 = CARTESIAN_POINT ( 'NONE',  ( -0.2222798536380058143, 3.123263141623795767E-17, -0.1250000000000000000 ) ) ;
#168 = SURFACE_STYLE_FILL_AREA ( #122 ) ;
#169 = LINE ( 'NONE', #241, #121 ) ;
#170 =( NAMED_UNIT ( * ) SI_UNIT ( $, .STERADIAN. ) SOLID_ANGLE_UNIT ( ) );
#171 = APPLICATION_PROTOCOL_DEFINITION ( 'draft international standard', 'automotive_design', 1998, #146 ) ;
#172 = DIRECTION ( 'NONE',  ( 1.000000000000000000, 0.000000000000000000, 0.000000000000000000 ) ) ;
#173 = VECTOR ( 'NONE', #271, 39.37007874015748143 ) ;
#174 = VERTEX_POINT ( 'NONE', #309 ) ;
#175 = CARTESIAN_POINT ( 'NONE',  ( 0.000000000000000000, 0.000000000000000000, 0.1250000000000000000 ) ) ;
#176 = ORIENTED_EDGE ( 'NONE', *, *, #71, .F. ) ;
#177 = DIRECTION ( 'NONE',  ( -1.000000000000000000, -3.072532158169873721E-16, 0.000000000000000000 ) ) ;
#178 = ORIENTED_EDGE ( 'NONE', *, *, #184, .F. ) ;
#179 = FACE_BOUND ( 'NONE', #313, .T. ) ;
#180 = VECTOR ( 'NONE', #226, 39.37007874015748143 ) ;
#181 = EDGE_LOOP ( 'NONE', ( #78, #25, #344, #161, #132, #212 ) ) ;
#182 = DIRECTION ( 'NONE',  ( 1.000000000000000000, 0.000000000000000000, -0.000000000000000000 ) ) ;
#183 = ORIENTED_EDGE ( 'NONE', *, *, #252, .T. ) ;
#184 = EDGE_CURVE ( 'NONE', #218, #202, #69, .T. ) ;
#185 = DIRECTION ( 'NONE',  ( 1.000000000000000000, 0.000000000000000000, 0.000000000000000000 ) ) ;
#186 = CARTESIAN_POINT ( 'NONE',  ( -0.1111399268190028794, 0.1924999999999999212, -0.1250000000000000000 ) ) ;
#187 = COLOUR_RGB ( '',0.8666666666666666963, 0.9098039215686274384, 1.000000000000000000 ) ;
#188 = DIRECTION ( 'NONE',  ( 0.000000000000000000, 0.000000000000000000, 1.000000000000000000 ) ) ;
#189 = DIRECTION ( 'NONE',  ( 1.000000000000000000, 0.000000000000000000, 0.000000000000000000 ) ) ;
#190 = CARTESIAN_POINT ( 'NONE',  ( 0.2222798536380058976, -8.569712686068203092E-17, -0.1250000000000000000 ) ) ;
#191 = CYLINDRICAL_SURFACE ( 'NONE', #2, 0.3125000000000000000 ) ;
#192 = DIRECTION ( 'NONE',  ( 0.4999999999999998335, -0.8660254037844388186, 0.000000000000000000 ) ) ;
#193 = VECTOR ( 'NONE', #34, 39.37007874015748854 ) ;
#194 = PRODUCT_DEFINITION_SHAPE ( 'NONE', 'NONE',  #331 ) ;
#195 = CARTESIAN_POINT ( 'NONE',  ( 0.000000000000000000, 0.000000000000000000, 0.000000000000000000 ) ) ;
#196 = PRODUCT_CONTEXT ( 'NONE', #146, 'mechanical' ) ;
#197 = PRODUCT_RELATED_PRODUCT_CATEGORY ( 'part', '', ( #225 ) ) ;
#198 = AXIS2_PLACEMENT_3D ( 'NONE', #300, #210, #246 ) ;
#199 = ORIENTED_EDGE ( 'NONE', *, *, #334, .F. ) ;
#200 = LINE ( 'NONE', #26, #90 ) ;
#201 = VECTOR ( 'NONE', #33, 39.37007874015748143 ) ;
#202 = VERTEX_POINT ( 'NONE', #125 ) ;
#203 = CARTESIAN_POINT ( 'NONE',  ( 0.1111399268190030043, -0.1925000000000000044, 0.1250000000000000000 ) ) ;
#204 = ORIENTED_EDGE ( 'NONE', *, *, #164, .T. ) ;
#205 = DIRECTION ( 'NONE',  ( -1.000000000000000000, 0.000000000000000000, 0.000000000000000000 ) ) ;
#206 = EDGE_LOOP ( 'NONE', ( #154, #259, #317, #178 ) ) ;
#207 = EDGE_CURVE ( 'NONE', #218, #286, #251, .T. ) ;
#208 = VECTOR ( 'NONE', #23, 39.37007874015748143 ) ;
#209 = ORIENTED_EDGE ( 'NONE', *, *, #223, .T. ) ;
#210 = DIRECTION ( 'NONE',  ( -0.8660254037844388186, -0.4999999999999997224, 0.000000000000000000 ) ) ;
#211 = ADVANCED_FACE ( 'NONE', ( #31 ), #327, .T. ) ;
#212 = ORIENTED_EDGE ( 'NONE', *, *, #22, .T. ) ;
#213 = FACE_OUTER_BOUND ( 'NONE', #323, .T. ) ;
#214 = ORIENTED_EDGE ( 'NONE', *, *, #116, .F. ) ;
#215 = CARTESIAN_POINT ( 'NONE',  ( 0.000000000000000000, 0.000000000000000000, 0.1250000000000000000 ) ) ;
#216 = AXIS2_PLACEMENT_3D ( 'NONE', #84, #188, #141 ) ;
#217 = SURFACE_STYLE_FILL_AREA ( #56 ) ;
#218 = VERTEX_POINT ( 'NONE', #138 ) ;
#219 = CARTESIAN_POINT ( 'NONE',  ( 0.2222798536380058976, -8.569712686068203092E-17, -0.1250000000000000000 ) ) ;
#220 = PRESENTATION_STYLE_ASSIGNMENT (( #326 ) ) ;
#221 = PRODUCT_DEFINITION_FORMATION_WITH_SPECIFIED_SOURCE ( 'ANY', '', #225, .NOT_KNOWN. ) ;
#222 = UNCERTAINTY_MEASURE_WITH_UNIT (LENGTH_MEASURE( 1.000000000000000082E-05 ), #332, 'distance_accuracy_value', 'NONE');
#223 = EDGE_CURVE ( 'NONE', #151, #86, #298, .T. ) ;
#224 = ADVANCED_FACE ( 'NONE', ( #118 ), #191, .T. ) ;
#225 = PRODUCT ( 'WCP-0958 Rev1', 'WCP-0958 Rev1', '', ( #196 ) ) ;
#226 = DIRECTION ( 'NONE',  ( 1.000000000000000000, 1.536266079084936861E-16, 0.000000000000000000 ) ) ;
#227 = UNCERTAINTY_MEASURE_WITH_UNIT (LENGTH_MEASURE( 1.000000000000000082E-05 ), #81, 'distance_accuracy_value', 'NONE');
#228 = VECTOR ( 'NONE', #177, 39.37007874015748143 ) ;
#229 = ORIENTED_EDGE ( 'NONE', *, *, #252, .F. ) ;
#230 = CARTESIAN_POINT ( 'NONE',  ( -0.2222798536380058143, 3.123263141623795767E-17, 0.1250000000000000000 ) ) ;
#231 = ORIENTED_EDGE ( 'NONE', *, *, #27, .F. ) ;
#232 = CARTESIAN_POINT ( 'NONE',  ( -0.1111399268190028655, -0.1925000000000000322, -0.1250000000000000000 ) ) ;
#233 = APPLICATION_CONTEXT ( 'automotive_design' ) ;
#234 = ORIENTED_EDGE ( 'NONE', *, *, #7, .F. ) ;
#235 = CARTESIAN_POINT ( 'NONE',  ( 0.3125000000000000000, 3.827021247335478926E-17, -0.1250000000000000000 ) ) ;
#236 = ORIENTED_EDGE ( 'NONE', *, *, #124, .F. ) ;
#237 = PLANE ( 'NONE',  #79 ) ;
#238 = ORIENTED_EDGE ( 'NONE', *, *, #164, .F. ) ;
#239 = DIRECTION ( 'NONE',  ( 0.000000000000000000, 0.000000000000000000, 1.000000000000000000 ) ) ;
#240 = AXIS2_PLACEMENT_3D ( 'NONE', #274, #296, #60 ) ;
#241 = CARTESIAN_POINT ( 'NONE',  ( -0.2222798536380058143, 3.123263141623795767E-17, 0.1250000000000000000 ) ) ;
#242 = DIRECTION ( 'NONE',  ( 0.000000000000000000, 0.000000000000000000, 1.000000000000000000 ) ) ;
#243 = DIRECTION ( 'NONE',  ( -0.5000000000000000000, -0.8660254037844385966, 0.000000000000000000 ) ) ;
#244 = CARTESIAN_POINT ( 'NONE',  ( 0.1111399268190029627, 0.1925000000000000044, 0.1250000000000000000 ) ) ;
#245 = CARTESIAN_POINT ( 'NONE',  ( -0.1111399268190028655, -0.1925000000000000322, 0.1250000000000000000 ) ) ;
#246 = DIRECTION ( 'NONE',  ( 0.4999999999999997224, -0.8660254037844388186, 0.000000000000000000 ) ) ;
#247 = VECTOR ( 'NONE', #243, 39.37007874015748854 ) ;
#248 =( LENGTH_UNIT ( ) NAMED_UNIT ( * ) SI_UNIT ( $, .METRE. ) );
#249 = LINE ( 'NONE', #62, #247 ) ;
#250 = DIRECTION ( 'NONE',  ( -0.4999999999999997224, 0.8660254037844388186, 0.000000000000000000 ) ) ;
#251 = CIRCLE ( 'NONE', #324, 0.3125000000000000000 ) ;
#252 = EDGE_CURVE ( 'NONE', #35, #82, #24, .T. ) ;
#253 =( CONVERSION_BASED_UNIT ( 'INCH', #92 ) LENGTH_UNIT ( ) NAMED_UNIT ( #66 ) );
#254 = AXIS2_PLACEMENT_3D ( 'NONE', #325, #110, #189 ) ;
#255 = EDGE_LOOP ( 'NONE', ( #129, #262, #18, #341 ) ) ;
#256 = LINE ( 'NONE', #74, #228 ) ;
#257 = VERTEX_POINT ( 'NONE', #244 ) ;
#258 = ADVANCED_FACE ( 'NONE', ( #213 ), #237, .T. ) ;
#259 = ORIENTED_EDGE ( 'NONE', *, *, #288, .T. ) ;
#260 = PLANE ( 'NONE',  #163 ) ;
#261 = VECTOR ( 'NONE', #104, 39.37007874015748143 ) ;
#262 = ORIENTED_EDGE ( 'NONE', *, *, #207, .F. ) ;
#263 = DIRECTION ( 'NONE',  ( 0.8660254037844388186, 0.4999999999999998335, -0.000000000000000000 ) ) ;
#264 = DIRECTION ( 'NONE',  ( -1.000000000000000000, 0.000000000000000000, 0.000000000000000000 ) ) ;
#265 = ORIENTED_EDGE ( 'NONE', *, *, #308, .F. ) ;
#266 = LINE ( 'NONE', #290, #261 ) ;
#267 = DIRECTION ( 'NONE',  ( 0.4999999999999998890, 0.8660254037844385966, 0.000000000000000000 ) ) ;
#268 = CARTESIAN_POINT ( 'NONE',  ( 0.1111399268190030043, -0.1925000000000000044, -0.1250000000000000000 ) ) ;
#269 =( GEOMETRIC_REPRESENTATION_CONTEXT ( 3 ) GLOBAL_UNCERTAINTY_ASSIGNED_CONTEXT ( ( #12 ) ) GLOBAL_UNIT_ASSIGNED_CONTEXT ( ( #253, #37, #170 ) ) REPRESENTATION_CONTEXT ( 'NONE', 'WORKASPACE' ) );
#270 = DIRECTION ( 'NONE',  ( 0.4999999999999998890, 0.8660254037844385966, 0.000000000000000000 ) ) ;
#271 = DIRECTION ( 'NONE',  ( -0.000000000000000000, -0.000000000000000000, -1.000000000000000000 ) ) ;
#272 = DIRECTION ( 'NONE',  ( -1.536266079084936861E-16, 1.000000000000000000, 0.000000000000000000 ) ) ;
#273 = EDGE_CURVE ( 'NONE', #101, #107, #83, .T. ) ;
#274 = CARTESIAN_POINT ( 'NONE',  ( -0.1111399268190028794, 0.1924999999999999212, 0.1250000000000000000 ) ) ;
#275 = VECTOR ( 'NONE', #250, 39.37007874015748854 ) ;
#276 = LINE ( 'NONE', #268, #283 ) ;
#277 = DIMENSIONAL_EXPONENTS ( 1.000000000000000000, 0.000000000000000000, 0.000000000000000000, 0.000000000000000000, 0.000000000000000000, 0.000000000000000000, 0.000000000000000000 ) ;
#278 = APPLICATION_PROTOCOL_DEFINITION ( 'draft international standard', 'automotive_design', 1998, #233 ) ;
#279 = DIRECTION ( 'NONE',  ( -1.000000000000000000, -3.072532158169873721E-16, 0.000000000000000000 ) ) ;
#280 = AXIS2_PLACEMENT_3D ( 'NONE', #100, #343, #205 ) ;
#281 = LINE ( 'NONE', #143, #180 ) ;
#282 = CARTESIAN_POINT ( 'NONE',  ( -0.3125000000000000000, 0.000000000000000000, 0.1250000000000000000 ) ) ;
#283 = VECTOR ( 'NONE', #270, 39.37007874015748854 ) ;
#284 = ORIENTED_EDGE ( 'NONE', *, *, #308, .T. ) ;
#285 = DIRECTION ( 'NONE',  ( 1.000000000000000000, 0.000000000000000000, -0.000000000000000000 ) ) ;
#286 = VERTEX_POINT ( 'NONE', #294 ) ;
#287 = CARTESIAN_POINT ( 'NONE',  ( 0.000000000000000000, 0.000000000000000000, -0.1250000000000000000 ) ) ;
#288 = EDGE_CURVE ( 'NONE', #286, #126, #55, .T. ) ;
#289 = EDGE_LOOP ( 'NONE', ( #44, #214 ) ) ;
#290 = CARTESIAN_POINT ( 'NONE',  ( -0.2222798536380058143, 3.123263141623795767E-17, 0.1250000000000000000 ) ) ;
#291 = MECHANICAL_DESIGN_GEOMETRIC_PRESENTATION_REPRESENTATION (  '', ( #339 ), #8 ) ;
#292 = CARTESIAN_POINT ( 'NONE',  ( 0.1111399268190029627, 0.1925000000000000044, 0.1250000000000000000 ) ) ;
#293 = ORIENTED_EDGE ( 'NONE', *, *, #307, .T. ) ;
#294 = CARTESIAN_POINT ( 'NONE',  ( 0.3125000000000000000, 3.827021247335478926E-17, 0.1250000000000000000 ) ) ;
#295 = AXIS2_PLACEMENT_3D ( 'NONE', #203, #152, #314 ) ;
#296 = DIRECTION ( 'NONE',  ( 0.8660254037844387076, -0.5000000000000001110, 0.000000000000000000 ) ) ;
#297 = EDGE_CURVE ( 'NONE', #286, #218, #158, .T. ) ;
#298 = LINE ( 'NONE', #3, #201 ) ;
#299 = DIRECTION ( 'NONE',  ( -0.000000000000000000, -0.000000000000000000, -1.000000000000000000 ) ) ;
#300 = CARTESIAN_POINT ( 'NONE',  ( 0.2222798536380058976, -8.569712686068203092E-17, 0.1250000000000000000 ) ) ;
#301 = LINE ( 'NONE', #166, #311 ) ;
#302 = FILL_AREA_STYLE_COLOUR ( '', #11 ) ;
#303 = MECHANICAL_DESIGN_GEOMETRIC_PRESENTATION_REPRESENTATION (  '', ( #64 ), #269 ) ;
#304 = PRESENTATION_STYLE_ASSIGNMENT (( #95 ) ) ;
#305 = LINE ( 'NONE', #145, #333 ) ;
#306 = VECTOR ( 'NONE', #267, 39.37007874015748854 ) ;
#307 = EDGE_CURVE ( 'NONE', #257, #103, #305, .T. ) ;
#308 = EDGE_CURVE ( 'NONE', #151, #35, #281, .T. ) ;
#309 = CARTESIAN_POINT ( 'NONE',  ( 0.1111399268190029627, 0.1925000000000000044, -0.1250000000000000000 ) ) ;
#310 = ORIENTED_EDGE ( 'NONE', *, *, #71, .T. ) ;
#311 = VECTOR ( 'NONE', #299, 39.37007874015748143 ) ;
#312 = PLANE ( 'NONE',  #142 ) ;
#313 = EDGE_LOOP ( 'NONE', ( #229, #265, #89, #234, #73, #176 ) ) ;
#314 = DIRECTION ( 'NONE',  ( -0.4999999999999998890, -0.8660254037844385966, 0.000000000000000000 ) ) ;
#315 = ORIENTED_EDGE ( 'NONE', *, *, #94, .T. ) ;
#316 = DIRECTION ( 'NONE',  ( 1.000000000000000000, 0.000000000000000000, 0.000000000000000000 ) ) ;
#317 = ORIENTED_EDGE ( 'NONE', *, *, #116, .T. ) ;
#318 = DIRECTION ( 'NONE',  ( 1.000000000000000000, 3.072532158169873721E-16, 0.000000000000000000 ) ) ;
#319 = ORIENTED_EDGE ( 'NONE', *, *, #99, .F. ) ;
#320 = ADVANCED_BREP_SHAPE_REPRESENTATION ( 'WCP-0958 Rev1', ( #87, #58 ), #30 ) ;
#321 = LENGTH_MEASURE_WITH_UNIT ( LENGTH_MEASURE( 0.02539999999999999897 ), #248 );
#322 = EDGE_LOOP ( 'NONE', ( #236, #335, #284, #346 ) ) ;
#323 = EDGE_LOOP ( 'NONE', ( #338, #238, #293, #21 ) ) ;
#324 = AXIS2_PLACEMENT_3D ( 'NONE', #215, #242, #185 ) ;
#325 = CARTESIAN_POINT ( 'NONE',  ( 0.000000000000000000, 0.000000000000000000, 0.1250000000000000000 ) ) ;
#326 = SURFACE_STYLE_USAGE ( .BOTH. , #350 ) ;
#327 = PLANE ( 'NONE',  #198 ) ;
#328 = EDGE_LOOP ( 'NONE', ( #119, #199, #14, #315 ) ) ;
#329 = SURFACE_SIDE_STYLE ('',( #168 ) ) ;
#330 = LINE ( 'NONE', #219, #275 ) ;
#331 = PRODUCT_DEFINITION ( 'UNKNOWN', '', #221, #93 ) ;
#332 =( CONVERSION_BASED_UNIT ( 'INCH', #6 ) LENGTH_UNIT ( ) NAMED_UNIT ( #277 ) );
#333 = VECTOR ( 'NONE', #279, 39.37007874015748143 ) ;
#334 = EDGE_CURVE ( 'NONE', #103, #101, #97, .T. ) ;
#335 = ORIENTED_EDGE ( 'NONE', *, *, #223, .F. ) ;
#336 = DIRECTION ( 'NONE',  ( -0.4999999999999998335, 0.8660254037844388186, 0.000000000000000000 ) ) ;
#337 = EDGE_CURVE ( 'NONE', #16, #174, #330, .T. ) ;
#338 = ORIENTED_EDGE ( 'NONE', *, *, #117, .F. ) ;
#339 = STYLED_ITEM ( 'NONE', ( #220 ), #87 ) ;
#340 = CYLINDRICAL_SURFACE ( 'NONE', #280, 0.3125000000000000000 ) ;
#341 = ORIENTED_EDGE ( 'NONE', *, *, #48, .T. ) ;
#342 = FACE_OUTER_BOUND ( 'NONE', #108, .T. ) ;
#343 = DIRECTION ( 'NONE',  ( -0.000000000000000000, -0.000000000000000000, -1.000000000000000000 ) ) ;
#344 = ORIENTED_EDGE ( 'NONE', *, *, #337, .T. ) ;
#345 = DIRECTION ( 'NONE',  ( 0.000000000000000000, 0.000000000000000000, 1.000000000000000000 ) ) ;
#346 = ORIENTED_EDGE ( 'NONE', *, *, #99, .T. ) ;
#347 = CARTESIAN_POINT ( 'NONE',  ( 0.1111399268190029627, 0.1925000000000000044, 0.1250000000000000000 ) ) ;
#348 = CIRCLE ( 'NONE', #96, 0.3125000000000000000 ) ;
#349 = CARTESIAN_POINT ( 'NONE',  ( 0.000000000000000000, 0.000000000000000000, 0.1250000000000000000 ) ) ;
#350 = SURFACE_SIDE_STYLE ('',( #217 ) ) ;
#351 = LINE ( 'NONE', #167, #147 ) ;
ENDSEC;
END-ISO-10303-21;
