ISO-10303-21;
HEADER;
FILE_DESCRIPTION (( 'STEP AP214' ),
    '1' );
FILE_NAME ('WCP-0957 Rev1.step',
    '2024-04-11T00:55:13',
    ( '' ),
    ( '' ),
    'SwSTEP 2.0',
    'SolidWorks 2022',
    '' );
FILE_SCHEMA (( 'AUTOMOTIVE_DESIGN' ));
ENDSEC;

DATA;
#1 = PLANE ( 'NONE',  #345 ) ;
#2 =( NAMED_UNIT ( * ) PLANE_ANGLE_UNIT ( ) SI_UNIT ( $, .RADIAN. ) );
#3 = AXIS2_PLACEMENT_3D ( 'NONE', #71, #98, #183 ) ;
#4 = LENGTH_MEASURE_WITH_UNIT ( LENGTH_MEASURE( 0.02539999999999999897 ), #270 );
#5 = DIRECTION ( 'NONE',  ( 0.000000000000000000, 0.000000000000000000, 1.000000000000000000 ) ) ;
#6 = CARTESIAN_POINT ( 'NONE',  ( 0.000000000000000000, 0.000000000000000000, 0.06250000000000000000 ) ) ;
#7 = ORIENTED_EDGE ( 'NONE', *, *, #103, .T. ) ;
#8 = DIRECTION ( 'NONE',  ( -0.000000000000000000, -0.000000000000000000, -1.000000000000000000 ) ) ;
#9 = EDGE_CURVE ( 'NONE', #334, #49, #236, .T. ) ;
#10 = DIMENSIONAL_EXPONENTS ( 1.000000000000000000, 0.000000000000000000, 0.000000000000000000, 0.000000000000000000, 0.000000000000000000, 0.000000000000000000, 0.000000000000000000 ) ;
#11 = PLANE ( 'NONE',  #288 ) ;
#12 = EDGE_LOOP ( 'NONE', ( #290, #96, #93, #200 ) ) ;
#13 = EDGE_CURVE ( 'NONE', #49, #303, #44, .T. ) ;
#14 = DIRECTION ( 'NONE',  ( 1.000000000000000000, 1.536266079084936861E-16, 0.000000000000000000 ) ) ;
#15 = VECTOR ( 'NONE', #208, 39.37007874015748854 ) ;
#16 = ORIENTED_EDGE ( 'NONE', *, *, #9, .T. ) ;
#17 = LINE ( 'NONE', #57, #261 ) ;
#18 = CARTESIAN_POINT ( 'NONE',  ( 0.1111399268190029627, 0.1925000000000000044, 0.06250000000000000000 ) ) ;
#19 = CARTESIAN_POINT ( 'NONE',  ( -0.2222798536380058143, 3.123263141623795767E-17, -0.06250000000000000000 ) ) ;
#20 = ORIENTED_EDGE ( 'NONE', *, *, #275, .F. ) ;
#21 = PRODUCT_CONTEXT ( 'NONE', #69, 'mechanical' ) ;
#22 = CARTESIAN_POINT ( 'NONE',  ( -0.1111399268190028794, -0.1925000000000000044, -0.06250000000000000000 ) ) ;
#23 = MECHANICAL_DESIGN_GEOMETRIC_PRESENTATION_REPRESENTATION (  '', ( #251 ), #301 ) ;
#24 =( NAMED_UNIT ( * ) SI_UNIT ( $, .STERADIAN. ) SOLID_ANGLE_UNIT ( ) );
#25 = ORIENTED_EDGE ( 'NONE', *, *, #229, .F. ) ;
#26 = SURFACE_STYLE_FILL_AREA ( #297 ) ;
#27 = EDGE_CURVE ( 'NONE', #59, #259, #184, .T. ) ;
#28 = VECTOR ( 'NONE', #233, 39.37007874015748854 ) ;
#29 = FACE_BOUND ( 'NONE', #342, .T. ) ;
#30 = CARTESIAN_POINT ( 'NONE',  ( 0.1111399268190029627, 0.1925000000000000044, 0.06250000000000000000 ) ) ;
#31 =( CONVERSION_BASED_UNIT ( 'INCH', #48 ) LENGTH_UNIT ( ) NAMED_UNIT ( #283 ) );
#32 = DIMENSIONAL_EXPONENTS ( 1.000000000000000000, 0.000000000000000000, 0.000000000000000000, 0.000000000000000000, 0.000000000000000000, 0.000000000000000000, 0.000000000000000000 ) ;
#33 = FILL_AREA_STYLE_COLOUR ( '', #191 ) ;
#34 = AXIS2_PLACEMENT_3D ( 'NONE', #182, #344, #95 ) ;
#35 = ORIENTED_EDGE ( 'NONE', *, *, #244, .F. ) ;
#36 = CARTESIAN_POINT ( 'NONE',  ( 0.3125000000000000000, 3.827021247335478926E-17, 0.06250000000000000000 ) ) ;
#37 = VECTOR ( 'NONE', #264, 39.37007874015748854 ) ;
#38 = LINE ( 'NONE', #260, #225 ) ;
#39 = DIRECTION ( 'NONE',  ( -0.000000000000000000, -0.000000000000000000, -1.000000000000000000 ) ) ;
#40 = AXIS2_PLACEMENT_3D ( 'NONE', #46, #106, #327 ) ;
#41 = ORIENTED_EDGE ( 'NONE', *, *, #87, .F. ) ;
#42 = DIRECTION ( 'NONE',  ( -0.000000000000000000, -0.000000000000000000, -1.000000000000000000 ) ) ;
#43 = ORIENTED_EDGE ( 'NONE', *, *, #333, .T. ) ;
#44 = LINE ( 'NONE', #310, #47 ) ;
#45 = PRESENTATION_STYLE_ASSIGNMENT (( #153 ) ) ;
#46 = CARTESIAN_POINT ( 'NONE',  ( 0.000000000000000000, 0.000000000000000000, 0.06250000000000000000 ) ) ;
#47 = VECTOR ( 'NONE', #128, 39.37007874015748143 ) ;
#48 = LENGTH_MEASURE_WITH_UNIT ( LENGTH_MEASURE( 0.02539999999999999897 ), #276 );
#49 = VERTEX_POINT ( 'NONE', #241 ) ;
#50 =( NAMED_UNIT ( * ) PLANE_ANGLE_UNIT ( ) SI_UNIT ( $, .RADIAN. ) );
#51 = SURFACE_SIDE_STYLE ('',( #26 ) ) ;
#52 = CARTESIAN_POINT ( 'NONE',  ( 0.1111399268190030043, -0.1925000000000000044, 0.06250000000000000000 ) ) ;
#53 = DIRECTION ( 'NONE',  ( -1.000000000000000000, 0.000000000000000000, 0.000000000000000000 ) ) ;
#54 = FACE_OUTER_BOUND ( 'NONE', #312, .T. ) ;
#55 = CIRCLE ( 'NONE', #210, 0.3125000000000000000 ) ;
#56 = ORIENTED_EDGE ( 'NONE', *, *, #309, .F. ) ;
#57 = CARTESIAN_POINT ( 'NONE',  ( 0.2222798536380058976, -8.569712686068203092E-17, -0.06250000000000000000 ) ) ;
#58 = LINE ( 'NONE', #179, #164 ) ;
#59 = VERTEX_POINT ( 'NONE', #315 ) ;
#60 = DIRECTION ( 'NONE',  ( -0.000000000000000000, -0.000000000000000000, -1.000000000000000000 ) ) ;
#61 = LINE ( 'NONE', #311, #28 ) ;
#62 = VERTEX_POINT ( 'NONE', #66 ) ;
#63 = CARTESIAN_POINT ( 'NONE',  ( 0.1111399268190029627, 0.1925000000000000044, 0.06250000000000000000 ) ) ;
#64 = VERTEX_POINT ( 'NONE', #181 ) ;
#65 =( NAMED_UNIT ( * ) PLANE_ANGLE_UNIT ( ) SI_UNIT ( $, .RADIAN. ) );
#66 = CARTESIAN_POINT ( 'NONE',  ( -0.2222798536380058143, 3.123263141623795767E-17, -0.06250000000000000000 ) ) ;
#67 = EDGE_LOOP ( 'NONE', ( #263, #86 ) ) ;
#68 = VERTEX_POINT ( 'NONE', #22 ) ;
#69 = APPLICATION_CONTEXT ( 'automotive_design' ) ;
#70 = AXIS2_PLACEMENT_3D ( 'NONE', #30, #350, #133 ) ;
#71 = CARTESIAN_POINT ( 'NONE',  ( 0.000000000000000000, 0.000000000000000000, 0.000000000000000000 ) ) ;
#72 =( NAMED_UNIT ( * ) SI_UNIT ( $, .STERADIAN. ) SOLID_ANGLE_UNIT ( ) );
#73 = CARTESIAN_POINT ( 'NONE',  ( 0.2222798536380058976, -8.569712686068203092E-17, 0.06250000000000000000 ) ) ;
#74 = DIRECTION ( 'NONE',  ( -0.4999999999999997224, 0.8660254037844388186, 0.000000000000000000 ) ) ;
#75 = ADVANCED_FACE ( 'NONE', ( #346 ), #292, .T. ) ;
#76 = VECTOR ( 'NONE', #206, 39.37007874015748143 ) ;
#77 = DIRECTION ( 'NONE',  ( 0.000000000000000000, 0.000000000000000000, 1.000000000000000000 ) ) ;
#78 = DIRECTION ( 'NONE',  ( 0.8660254037844387076, -0.5000000000000001110, 0.000000000000000000 ) ) ;
#79 = ADVANCED_FACE ( 'NONE', ( #54, #29 ), #159, .T. ) ;
#80 = CARTESIAN_POINT ( 'NONE',  ( 0.000000000000000000, 0.000000000000000000, 0.06250000000000000000 ) ) ;
#81 = VECTOR ( 'NONE', #141, 39.37007874015748143 ) ;
#82 = ADVANCED_FACE ( 'NONE', ( #163 ), #100, .T. ) ;
#83 = ORIENTED_EDGE ( 'NONE', *, *, #229, .T. ) ;
#84 = EDGE_CURVE ( 'NONE', #207, #115, #193, .T. ) ;
#85 = CARTESIAN_POINT ( 'NONE',  ( -0.1111399268190028794, 0.1924999999999999212, 0.06250000000000000000 ) ) ;
#86 = ORIENTED_EDGE ( 'NONE', *, *, #27, .F. ) ;
#87 = EDGE_CURVE ( 'NONE', #64, #211, #216, .T. ) ;
#88 = DIRECTION ( 'NONE',  ( 0.000000000000000000, 0.000000000000000000, 1.000000000000000000 ) ) ;
#89 = AXIS2_PLACEMENT_3D ( 'NONE', #322, #247, #351 ) ;
#90 = LINE ( 'NONE', #36, #255 ) ;
#91 = ORIENTED_EDGE ( 'NONE', *, *, #333, .F. ) ;
#92 = DIRECTION ( 'NONE',  ( -1.536266079084936861E-16, 1.000000000000000000, 0.000000000000000000 ) ) ;
#93 = ORIENTED_EDGE ( 'NONE', *, *, #314, .T. ) ;
#94 = LINE ( 'NONE', #172, #313 ) ;
#95 = DIRECTION ( 'NONE',  ( 1.000000000000000000, 0.000000000000000000, 0.000000000000000000 ) ) ;
#96 = ORIENTED_EDGE ( 'NONE', *, *, #324, .F. ) ;
#97 = ADVANCED_FACE ( 'NONE', ( #158 ), #296, .T. ) ;
#98 = DIRECTION ( 'NONE',  ( 0.000000000000000000, 0.000000000000000000, 1.000000000000000000 ) ) ;
#99 = ORIENTED_EDGE ( 'NONE', *, *, #169, .F. ) ;
#100 = PLANE ( 'NONE',  #101 ) ;
#101 = AXIS2_PLACEMENT_3D ( 'NONE', #220, #78, #161 ) ;
#102 = DIRECTION ( 'NONE',  ( -0.000000000000000000, -0.000000000000000000, -1.000000000000000000 ) ) ;
#103 = EDGE_CURVE ( 'NONE', #64, #207, #192, .T. ) ;
#104 = SURFACE_STYLE_USAGE ( .BOTH. , #51 ) ;
#105 = MANIFOLD_SOLID_BREP ( 'Boss-Extrude1', #197 ) ;
#106 = DIRECTION ( 'NONE',  ( -0.000000000000000000, -0.000000000000000000, -1.000000000000000000 ) ) ;
#107 = PRESENTATION_LAYER_ASSIGNMENT (  '', '', ( #221 ) ) ;
#108 = FILL_AREA_STYLE ('',( #129 ) ) ;
#109 = DIRECTION ( 'NONE',  ( 0.4999999999999998890, 0.8660254037844385966, 0.000000000000000000 ) ) ;
#110 = APPLICATION_CONTEXT ( 'automotive_design' ) ;
#111 = PLANE ( 'NONE',  #132 ) ;
#112 = ORIENTED_EDGE ( 'NONE', *, *, #87, .T. ) ;
#113 = VECTOR ( 'NONE', #102, 39.37007874015748143 ) ;
#114 = DIRECTION ( 'NONE',  ( -0.8660254037844387076, 0.4999999999999999445, 0.000000000000000000 ) ) ;
#115 = VERTEX_POINT ( 'NONE', #131 ) ;
#116 = CARTESIAN_POINT ( 'NONE',  ( 0.3125000000000000000, 3.827021247335478926E-17, 0.06250000000000000000 ) ) ;
#117 = LINE ( 'NONE', #149, #76 ) ;
#118 = ORIENTED_EDGE ( 'NONE', *, *, #280, .T. ) ;
#119 = CARTESIAN_POINT ( 'NONE',  ( -0.1111399268190028794, 0.1924999999999999212, -0.06250000000000000000 ) ) ;
#120 = VECTOR ( 'NONE', #217, 39.37007874015748854 ) ;
#121 = ORIENTED_EDGE ( 'NONE', *, *, #309, .T. ) ;
#122 = DIRECTION ( 'NONE',  ( -0.4999999999999998335, 0.8660254037844388186, 0.000000000000000000 ) ) ;
#123 = DIRECTION ( 'NONE',  ( -0.000000000000000000, -0.000000000000000000, -1.000000000000000000 ) ) ;
#124 = CARTESIAN_POINT ( 'NONE',  ( -0.1111399268190028794, 0.1924999999999999212, 0.06250000000000000000 ) ) ;
#125 = ADVANCED_FACE ( 'NONE', ( #272 ), #246, .T. ) ;
#126 = ORIENTED_EDGE ( 'NONE', *, *, #242, .F. ) ;
#127 =( GEOMETRIC_REPRESENTATION_CONTEXT ( 3 ) GLOBAL_UNCERTAINTY_ASSIGNED_CONTEXT ( ( #151 ) ) GLOBAL_UNIT_ASSIGNED_CONTEXT ( ( #31, #2, #24 ) ) REPRESENTATION_CONTEXT ( 'NONE', 'WORKASPACE' ) );
#128 = DIRECTION ( 'NONE',  ( -1.000000000000000000, -3.072532158169873721E-16, 0.000000000000000000 ) ) ;
#129 = FILL_AREA_STYLE_COLOUR ( '', #160 ) ;
#130 = ORIENTED_EDGE ( 'NONE', *, *, #224, .T. ) ;
#131 = CARTESIAN_POINT ( 'NONE',  ( 0.2222798536380058976, -8.569712686068203092E-17, -0.06250000000000000000 ) ) ;
#132 = AXIS2_PLACEMENT_3D ( 'NONE', #274, #114, #223 ) ;
#133 = DIRECTION ( 'NONE',  ( 1.000000000000000000, 3.072532158169873721E-16, 0.000000000000000000 ) ) ;
#134 = FACE_BOUND ( 'NONE', #302, .T. ) ;
#135 = PRODUCT_RELATED_PRODUCT_CATEGORY ( 'part', '', ( #173 ) ) ;
#136 = EDGE_CURVE ( 'NONE', #259, #59, #215, .T. ) ;
#137 = VECTOR ( 'NONE', #39, 39.37007874015748143 ) ;
#138 = ORIENTED_EDGE ( 'NONE', *, *, #275, .T. ) ;
#139 = ORIENTED_EDGE ( 'NONE', *, *, #13, .T. ) ;
#140 = AXIS2_PLACEMENT_3D ( 'NONE', #222, #77, #188 ) ;
#141 = DIRECTION ( 'NONE',  ( 1.000000000000000000, 1.536266079084936861E-16, 0.000000000000000000 ) ) ;
#142 = PRODUCT_DEFINITION_SHAPE ( 'NONE', 'NONE',  #148 ) ;
#143 = ORIENTED_EDGE ( 'NONE', *, *, #341, .T. ) ;
#144 = DIRECTION ( 'NONE',  ( -0.4999999999999997224, 0.8660254037844388186, 0.000000000000000000 ) ) ;
#145 = CARTESIAN_POINT ( 'NONE',  ( 0.000000000000000000, 0.000000000000000000, 0.06250000000000000000 ) ) ;
#146 = VECTOR ( 'NONE', #74, 39.37007874015748854 ) ;
#147 = ORIENTED_EDGE ( 'NONE', *, *, #238, .T. ) ;
#148 = PRODUCT_DEFINITION ( 'UNKNOWN', '', #325, #166 ) ;
#149 = CARTESIAN_POINT ( 'NONE',  ( -0.1111399268190028794, 0.1924999999999999212, 0.06250000000000000000 ) ) ;
#150 = ORIENTED_EDGE ( 'NONE', *, *, #84, .T. ) ;
#151 = UNCERTAINTY_MEASURE_WITH_UNIT (LENGTH_MEASURE( 1.000000000000000082E-05 ), #31, 'distance_accuracy_value', 'NONE');
#152 = ORIENTED_EDGE ( 'NONE', *, *, #238, .F. ) ;
#153 = SURFACE_STYLE_USAGE ( .BOTH. , #156 ) ;
#154 =( GEOMETRIC_REPRESENTATION_CONTEXT ( 3 ) GLOBAL_UNCERTAINTY_ASSIGNED_CONTEXT ( ( #328 ) ) GLOBAL_UNIT_ASSIGNED_CONTEXT ( ( #250, #65, #186 ) ) REPRESENTATION_CONTEXT ( 'NONE', 'WORKASPACE' ) );
#155 = ORIENTED_EDGE ( 'NONE', *, *, #212, .T. ) ;
#156 = SURFACE_SIDE_STYLE ('',( #320 ) ) ;
#157 = ORIENTED_EDGE ( 'NONE', *, *, #314, .F. ) ;
#158 = FACE_OUTER_BOUND ( 'NONE', #338, .T. ) ;
#159 = PLANE ( 'NONE',  #140 ) ;
#160 = COLOUR_RGB ( '',0.8666666666666666963, 0.9098039215686274384, 1.000000000000000000 ) ;
#161 = DIRECTION ( 'NONE',  ( 0.5000000000000000000, 0.8660254037844385966, 0.000000000000000000 ) ) ;
#162 = CARTESIAN_POINT ( 'NONE',  ( 0.1111399268190030043, -0.1925000000000000044, -0.06250000000000000000 ) ) ;
#163 = FACE_OUTER_BOUND ( 'NONE', #347, .T. ) ;
#164 = VECTOR ( 'NONE', #289, 39.37007874015748143 ) ;
#165 = DIRECTION ( 'NONE',  ( 1.000000000000000000, 0.000000000000000000, 0.000000000000000000 ) ) ;
#166 = PRODUCT_DEFINITION_CONTEXT ( 'detailed design', #110, 'design' ) ;
#167 = ORIENTED_EDGE ( 'NONE', *, *, #212, .F. ) ;
#168 = ORIENTED_EDGE ( 'NONE', *, *, #13, .F. ) ;
#169 = EDGE_CURVE ( 'NONE', #211, #334, #219, .T. ) ;
#170 = CARTESIAN_POINT ( 'NONE',  ( -0.1111399268190028655, -0.1925000000000000322, 0.06250000000000000000 ) ) ;
#171 = VECTOR ( 'NONE', #123, 39.37007874015748143 ) ;
#172 = CARTESIAN_POINT ( 'NONE',  ( -0.3125000000000000000, 0.000000000000000000, 0.06250000000000000000 ) ) ;
#173 = PRODUCT ( 'WCP-0957 Rev1', 'WCP-0957 Rev1', '', ( #21 ) ) ;
#174 = ORIENTED_EDGE ( 'NONE', *, *, #244, .T. ) ;
#175 = DIRECTION ( 'NONE',  ( -1.000000000000000000, -1.536266079084936861E-16, 0.000000000000000000 ) ) ;
#176 = CARTESIAN_POINT ( 'NONE',  ( 0.2222798536380058976, -8.569712686068203092E-17, 0.06250000000000000000 ) ) ;
#177 = ORIENTED_EDGE ( 'NONE', *, *, #136, .T. ) ;
#178 = VECTOR ( 'NONE', #60, 39.37007874015748143 ) ;
#179 = CARTESIAN_POINT ( 'NONE',  ( -0.1111399268190028655, -0.1925000000000000322, 0.06250000000000000000 ) ) ;
#180 = ORIENTED_EDGE ( 'NONE', *, *, #341, .F. ) ;
#181 = CARTESIAN_POINT ( 'NONE',  ( 0.1111399268190030043, -0.1925000000000000044, 0.06250000000000000000 ) ) ;
#182 = CARTESIAN_POINT ( 'NONE',  ( 0.000000000000000000, 0.000000000000000000, -0.06250000000000000000 ) ) ;
#183 = DIRECTION ( 'NONE',  ( 1.000000000000000000, 0.000000000000000000, 0.000000000000000000 ) ) ;
#184 = CIRCLE ( 'NONE', #34, 0.3125000000000000000 ) ;
#185 = ORIENTED_EDGE ( 'NONE', *, *, #84, .F. ) ;
#186 =( NAMED_UNIT ( * ) SI_UNIT ( $, .STERADIAN. ) SOLID_ANGLE_UNIT ( ) );
#187 = ADVANCED_FACE ( 'NONE', ( #190, #134 ), #1, .F. ) ;
#188 = DIRECTION ( 'NONE',  ( 1.000000000000000000, 0.000000000000000000, -0.000000000000000000 ) ) ;
#189 = DIRECTION ( 'NONE',  ( 0.4999999999999997224, -0.8660254037844388186, 0.000000000000000000 ) ) ;
#190 = FACE_OUTER_BOUND ( 'NONE', #67, .T. ) ;
#191 = COLOUR_RGB ( '',0.8666666666666666963, 0.9098039215686274384, 1.000000000000000000 ) ;
#192 = LINE ( 'NONE', #321, #113 ) ;
#193 = LINE ( 'NONE', #273, #282 ) ;
#194 = DIRECTION ( 'NONE',  ( 0.000000000000000000, 0.000000000000000000, 1.000000000000000000 ) ) ;
#195 = VECTOR ( 'NONE', #305, 39.37007874015748143 ) ;
#196 = ORIENTED_EDGE ( 'NONE', *, *, #224, .F. ) ;
#197 = CLOSED_SHELL ( 'NONE', ( #75, #79, #187, #204, #218, #201, #97, #125, #82, #254 ) ) ;
#198 = EDGE_LOOP ( 'NONE', ( #25, #256, #268, #126 ) ) ;
#199 = CARTESIAN_POINT ( 'NONE',  ( 0.000000000000000000, 0.000000000000000000, -0.06250000000000000000 ) ) ;
#200 = ORIENTED_EDGE ( 'NONE', *, *, #228, .T. ) ;
#201 = ADVANCED_FACE ( 'NONE', ( #252 ), #111, .T. ) ;
#202 = LINE ( 'NONE', #205, #178 ) ;
#203 = ORIENTED_EDGE ( 'NONE', *, *, #103, .F. ) ;
#204 = ADVANCED_FACE ( 'NONE', ( #299 ), #248, .T. ) ;
#205 = CARTESIAN_POINT ( 'NONE',  ( -0.2222798536380058143, 3.123263141623795767E-17, 0.06250000000000000000 ) ) ;
#206 = DIRECTION ( 'NONE',  ( -0.000000000000000000, -0.000000000000000000, -1.000000000000000000 ) ) ;
#207 = VERTEX_POINT ( 'NONE', #162 ) ;
#208 = DIRECTION ( 'NONE',  ( -0.5000000000000000000, -0.8660254037844385966, 0.000000000000000000 ) ) ;
#209 = ORIENTED_EDGE ( 'NONE', *, *, #169, .T. ) ;
#210 = AXIS2_PLACEMENT_3D ( 'NONE', #145, #88, #304 ) ;
#211 = VERTEX_POINT ( 'NONE', #329 ) ;
#212 = EDGE_CURVE ( 'NONE', #227, #266, #319, .T. ) ;
#213 = ORIENTED_EDGE ( 'NONE', *, *, #267, .F. ) ;
#214 = ORIENTED_EDGE ( 'NONE', *, *, #324, .T. ) ;
#215 = CIRCLE ( 'NONE', #89, 0.3125000000000000000 ) ;
#216 = LINE ( 'NONE', #52, #120 ) ;
#217 = DIRECTION ( 'NONE',  ( 0.4999999999999998890, 0.8660254037844385966, 0.000000000000000000 ) ) ;
#218 = ADVANCED_FACE ( 'NONE', ( #330 ), #307, .T. ) ;
#219 = LINE ( 'NONE', #323, #146 ) ;
#220 = CARTESIAN_POINT ( 'NONE',  ( -0.1111399268190028794, 0.1924999999999999212, 0.06250000000000000000 ) ) ;
#221 = STYLED_ITEM ( 'NONE', ( #45 ), #339 ) ;
#222 = CARTESIAN_POINT ( 'NONE',  ( 0.000000000000000000, 0.000000000000000000, 0.06250000000000000000 ) ) ;
#223 = DIRECTION ( 'NONE',  ( -0.4999999999999998890, -0.8660254037844385966, 0.000000000000000000 ) ) ;
#224 = EDGE_CURVE ( 'NONE', #334, #318, #230, .T. ) ;
#225 = VECTOR ( 'NONE', #14, 39.37007874015748143 ) ;
#226 = VERTEX_POINT ( 'NONE', #340 ) ;
#227 = VERTEX_POINT ( 'NONE', #281 ) ;
#228 = EDGE_CURVE ( 'NONE', #226, #68, #58, .T. ) ;
#229 = EDGE_CURVE ( 'NONE', #266, #227, #55, .T. ) ;
#230 = LINE ( 'NONE', #63, #195 ) ;
#231 = LINE ( 'NONE', #124, #37 ) ;
#232 = AXIS2_PLACEMENT_3D ( 'NONE', #73, #326, #189 ) ;
#233 = DIRECTION ( 'NONE',  ( 0.4999999999999998335, -0.8660254037844388186, 0.000000000000000000 ) ) ;
#234 = EDGE_LOOP ( 'NONE', ( #185, #203, #112, #143 ) ) ;
#235 = CARTESIAN_POINT ( 'NONE',  ( -0.3125000000000000000, 0.000000000000000000, -0.06250000000000000000 ) ) ;
#236 = LINE ( 'NONE', #18, #171 ) ;
#237 = DIRECTION ( 'NONE',  ( 0.4999999999999998335, -0.8660254037844388186, 0.000000000000000000 ) ) ;
#238 = EDGE_CURVE ( 'NONE', #115, #49, #17, .T. ) ;
#239 = ORIENTED_EDGE ( 'NONE', *, *, #9, .F. ) ;
#240 = AXIS2_PLACEMENT_3D ( 'NONE', #6, #332, #53 ) ;
#241 = CARTESIAN_POINT ( 'NONE',  ( 0.1111399268190029627, 0.1925000000000000044, -0.06250000000000000000 ) ) ;
#242 = EDGE_CURVE ( 'NONE', #227, #259, #94, .T. ) ;
#243 = EDGE_LOOP ( 'NONE', ( #168, #239, #130, #138 ) ) ;
#244 = EDGE_CURVE ( 'NONE', #226, #64, #286, .T. ) ;
#245 =( LENGTH_UNIT ( ) NAMED_UNIT ( * ) SI_UNIT ( $, .METRE. ) );
#246 = PLANE ( 'NONE',  #70 ) ;
#247 = DIRECTION ( 'NONE',  ( 0.000000000000000000, 0.000000000000000000, 1.000000000000000000 ) ) ;
#248 = CYLINDRICAL_SURFACE ( 'NONE', #240, 0.3125000000000000000 ) ;
#249 = LENGTH_MEASURE_WITH_UNIT ( LENGTH_MEASURE( 0.02539999999999999897 ), #245 );
#250 =( CONVERSION_BASED_UNIT ( 'INCH', #4 ) LENGTH_UNIT ( ) NAMED_UNIT ( #10 ) );
#251 = STYLED_ITEM ( 'NONE', ( #300 ), #105 ) ;
#252 = FACE_OUTER_BOUND ( 'NONE', #234, .T. ) ;
#253 = EDGE_LOOP ( 'NONE', ( #91, #294, #174, #7 ) ) ;
#254 = ADVANCED_FACE ( 'NONE', ( #257 ), #11, .T. ) ;
#255 = VECTOR ( 'NONE', #8, 39.37007874015748143 ) ;
#256 = ORIENTED_EDGE ( 'NONE', *, *, #267, .T. ) ;
#257 = FACE_OUTER_BOUND ( 'NONE', #12, .T. ) ;
#258 = DIRECTION ( 'NONE',  ( 0.8660254037844388186, 0.4999999999999998335, -0.000000000000000000 ) ) ;
#259 = VERTEX_POINT ( 'NONE', #235 ) ;
#260 = CARTESIAN_POINT ( 'NONE',  ( -0.1111399268190028655, -0.1925000000000000322, -0.06250000000000000000 ) ) ;
#261 = VECTOR ( 'NONE', #144, 39.37007874015748854 ) ;
#262 = CARTESIAN_POINT ( 'NONE',  ( -0.1111399268190028655, -0.1925000000000000322, 0.06250000000000000000 ) ) ;
#263 = ORIENTED_EDGE ( 'NONE', *, *, #136, .F. ) ;
#264 = DIRECTION ( 'NONE',  ( -0.5000000000000000000, -0.8660254037844385966, 0.000000000000000000 ) ) ;
#265 = UNCERTAINTY_MEASURE_WITH_UNIT (LENGTH_MEASURE( 1.000000000000000082E-05 ), #298, 'distance_accuracy_value', 'NONE');
#266 = VERTEX_POINT ( 'NONE', #116 ) ;
#267 = EDGE_CURVE ( 'NONE', #266, #59, #90, .T. ) ;
#268 = ORIENTED_EDGE ( 'NONE', *, *, #27, .T. ) ;
#269 = EDGE_CURVE ( 'NONE', #318, #316, #231, .T. ) ;
#270 =( LENGTH_UNIT ( ) NAMED_UNIT ( * ) SI_UNIT ( $, .METRE. ) );
#271 = ORIENTED_EDGE ( 'NONE', *, *, #242, .T. ) ;
#272 = FACE_OUTER_BOUND ( 'NONE', #243, .T. ) ;
#273 = CARTESIAN_POINT ( 'NONE',  ( 0.1111399268190030043, -0.1925000000000000044, -0.06250000000000000000 ) ) ;
#274 = CARTESIAN_POINT ( 'NONE',  ( 0.1111399268190030043, -0.1925000000000000044, 0.06250000000000000000 ) ) ;
#275 = EDGE_CURVE ( 'NONE', #318, #303, #117, .T. ) ;
#276 =( LENGTH_UNIT ( ) NAMED_UNIT ( * ) SI_UNIT ( $, .METRE. ) );
#277 = PRESENTATION_LAYER_ASSIGNMENT (  '', '', ( #251 ) ) ;
#278 = DIRECTION ( 'NONE',  ( 1.000000000000000000, 0.000000000000000000, -0.000000000000000000 ) ) ;
#279 = ORIENTED_EDGE ( 'NONE', *, *, #269, .T. ) ;
#280 = EDGE_CURVE ( 'NONE', #62, #68, #285, .T. ) ;
#281 = CARTESIAN_POINT ( 'NONE',  ( -0.3125000000000000000, 0.000000000000000000, 0.06250000000000000000 ) ) ;
#282 = VECTOR ( 'NONE', #109, 39.37007874015748854 ) ;
#283 = DIMENSIONAL_EXPONENTS ( 1.000000000000000000, 0.000000000000000000, 0.000000000000000000, 0.000000000000000000, 0.000000000000000000, 0.000000000000000000, 0.000000000000000000 ) ;
#284 = CARTESIAN_POINT ( 'NONE',  ( -0.2222798536380058143, 3.123263141623795767E-17, 0.06250000000000000000 ) ) ;
#285 = LINE ( 'NONE', #19, #331 ) ;
#286 = LINE ( 'NONE', #170, #81 ) ;
#287 = ORIENTED_EDGE ( 'NONE', *, *, #269, .F. ) ;
#288 = AXIS2_PLACEMENT_3D ( 'NONE', #284, #258, #122 ) ;
#289 = DIRECTION ( 'NONE',  ( -0.000000000000000000, -0.000000000000000000, -1.000000000000000000 ) ) ;
#290 = ORIENTED_EDGE ( 'NONE', *, *, #280, .F. ) ;
#291 = EDGE_LOOP ( 'NONE', ( #213, #167, #271, #177 ) ) ;
#292 = CYLINDRICAL_SURFACE ( 'NONE', #40, 0.3125000000000000000 ) ;
#293 = APPLICATION_PROTOCOL_DEFINITION ( 'draft international standard', 'automotive_design', 1998, #110 ) ;
#294 = ORIENTED_EDGE ( 'NONE', *, *, #228, .F. ) ;
#295 = SHAPE_DEFINITION_REPRESENTATION ( #142, #339 ) ;
#296 = PLANE ( 'NONE',  #232 ) ;
#297 = FILL_AREA_STYLE ('',( #33 ) ) ;
#298 =( CONVERSION_BASED_UNIT ( 'INCH', #249 ) LENGTH_UNIT ( ) NAMED_UNIT ( #32 ) );
#299 = FACE_OUTER_BOUND ( 'NONE', #291, .T. ) ;
#300 = PRESENTATION_STYLE_ASSIGNMENT (( #104 ) ) ;
#301 =( GEOMETRIC_REPRESENTATION_CONTEXT ( 3 ) GLOBAL_UNCERTAINTY_ASSIGNED_CONTEXT ( ( #265 ) ) GLOBAL_UNIT_ASSIGNED_CONTEXT ( ( #298, #50, #72 ) ) REPRESENTATION_CONTEXT ( 'NONE', 'WORKASPACE' ) );
#302 = EDGE_LOOP ( 'NONE', ( #43, #150, #147, #139, #121, #118 ) ) ;
#303 = VERTEX_POINT ( 'NONE', #335 ) ;
#304 = DIRECTION ( 'NONE',  ( 1.000000000000000000, 0.000000000000000000, 0.000000000000000000 ) ) ;
#305 = DIRECTION ( 'NONE',  ( -1.000000000000000000, -3.072532158169873721E-16, 0.000000000000000000 ) ) ;
#306 = MECHANICAL_DESIGN_GEOMETRIC_PRESENTATION_REPRESENTATION (  '', ( #221 ), #154 ) ;
#307 = PLANE ( 'NONE',  #348 ) ;
#308 = LINE ( 'NONE', #176, #137 ) ;
#309 = EDGE_CURVE ( 'NONE', #303, #62, #336, .T. ) ;
#310 = CARTESIAN_POINT ( 'NONE',  ( 0.1111399268190029627, 0.1925000000000000044, -0.06250000000000000000 ) ) ;
#311 = CARTESIAN_POINT ( 'NONE',  ( -0.2222798536380058143, 3.123263141623795767E-17, 0.06250000000000000000 ) ) ;
#312 = EDGE_LOOP ( 'NONE', ( #155, #83 ) ) ;
#313 = VECTOR ( 'NONE', #42, 39.37007874015748143 ) ;
#314 = EDGE_CURVE ( 'NONE', #316, #226, #61, .T. ) ;
#315 = CARTESIAN_POINT ( 'NONE',  ( 0.3125000000000000000, 3.827021247335478926E-17, -0.06250000000000000000 ) ) ;
#316 = VERTEX_POINT ( 'NONE', #343 ) ;
#317 = APPLICATION_PROTOCOL_DEFINITION ( 'draft international standard', 'automotive_design', 1998, #69 ) ;
#318 = VERTEX_POINT ( 'NONE', #85 ) ;
#319 = CIRCLE ( 'NONE', #349, 0.3125000000000000000 ) ;
#320 = SURFACE_STYLE_FILL_AREA ( #108 ) ;
#321 = CARTESIAN_POINT ( 'NONE',  ( 0.1111399268190030043, -0.1925000000000000044, 0.06250000000000000000 ) ) ;
#322 = CARTESIAN_POINT ( 'NONE',  ( 0.000000000000000000, 0.000000000000000000, -0.06250000000000000000 ) ) ;
#323 = CARTESIAN_POINT ( 'NONE',  ( 0.2222798536380058976, -8.569712686068203092E-17, 0.06250000000000000000 ) ) ;
#324 = EDGE_CURVE ( 'NONE', #316, #62, #202, .T. ) ;
#325 = PRODUCT_DEFINITION_FORMATION_WITH_SPECIFIED_SOURCE ( 'ANY', '', #173, .NOT_KNOWN. ) ;
#326 = DIRECTION ( 'NONE',  ( -0.8660254037844388186, -0.4999999999999997224, 0.000000000000000000 ) ) ;
#327 = DIRECTION ( 'NONE',  ( -1.000000000000000000, 0.000000000000000000, 0.000000000000000000 ) ) ;
#328 = UNCERTAINTY_MEASURE_WITH_UNIT (LENGTH_MEASURE( 1.000000000000000082E-05 ), #250, 'distance_accuracy_value', 'NONE');
#329 = CARTESIAN_POINT ( 'NONE',  ( 0.2222798536380058976, -8.569712686068203092E-17, 0.06250000000000000000 ) ) ;
#330 = FACE_OUTER_BOUND ( 'NONE', #253, .T. ) ;
#331 = VECTOR ( 'NONE', #237, 39.37007874015748854 ) ;
#332 = DIRECTION ( 'NONE',  ( -0.000000000000000000, -0.000000000000000000, -1.000000000000000000 ) ) ;
#333 = EDGE_CURVE ( 'NONE', #68, #207, #38, .T. ) ;
#334 = VERTEX_POINT ( 'NONE', #337 ) ;
#335 = CARTESIAN_POINT ( 'NONE',  ( -0.1111399268190028794, 0.1924999999999999212, -0.06250000000000000000 ) ) ;
#336 = LINE ( 'NONE', #119, #15 ) ;
#337 = CARTESIAN_POINT ( 'NONE',  ( 0.1111399268190029627, 0.1925000000000000044, 0.06250000000000000000 ) ) ;
#338 = EDGE_LOOP ( 'NONE', ( #152, #180, #209, #16 ) ) ;
#339 = ADVANCED_BREP_SHAPE_REPRESENTATION ( 'WCP-0957 Rev1', ( #105, #3 ), #127 ) ;
#340 = CARTESIAN_POINT ( 'NONE',  ( -0.1111399268190028655, -0.1925000000000000322, 0.06250000000000000000 ) ) ;
#341 = EDGE_CURVE ( 'NONE', #211, #115, #308, .T. ) ;
#342 = EDGE_LOOP ( 'NONE', ( #41, #35, #157, #287, #196, #99 ) ) ;
#343 = CARTESIAN_POINT ( 'NONE',  ( -0.2222798536380058143, 3.414809992080329023E-17, 0.06250000000000000000 ) ) ;
#344 = DIRECTION ( 'NONE',  ( 0.000000000000000000, 0.000000000000000000, 1.000000000000000000 ) ) ;
#345 = AXIS2_PLACEMENT_3D ( 'NONE', #199, #5, #278 ) ;
#346 = FACE_OUTER_BOUND ( 'NONE', #198, .T. ) ;
#347 = EDGE_LOOP ( 'NONE', ( #56, #20, #279, #214 ) ) ;
#348 = AXIS2_PLACEMENT_3D ( 'NONE', #262, #92, #175 ) ;
#349 = AXIS2_PLACEMENT_3D ( 'NONE', #80, #194, #165 ) ;
#350 = DIRECTION ( 'NONE',  ( 3.072532158169873721E-16, -1.000000000000000000, 0.000000000000000000 ) ) ;
#351 = DIRECTION ( 'NONE',  ( 1.000000000000000000, 0.000000000000000000, 0.000000000000000000 ) ) ;
ENDSEC;
END-ISO-10303-21;
