ISO-10303-21;
HEADER;
FILE_DESCRIPTION (( 'STEP AP214' ),
    '1' );
FILE_NAME ('WCP-0956 Rev1.step',
    '2024-04-11T00:55:08',
    ( '' ),
    ( '' ),
    'SwSTEP 2.0',
    'SolidWorks 2022',
    '' );
FILE_SCHEMA (( 'AUTOMOTIVE_DESIGN' ));
ENDSEC;

DATA;
#1 = DIRECTION ( 'NONE',  ( 1.000000000000000000, 0.000000000000000000, 0.000000000000000000 ) ) ;
#2 = CARTESIAN_POINT ( 'NONE',  ( -0.2222798536380058143, 3.123263141623795767E-17, 0.03125000000000000000 ) ) ;
#3 = VECTOR ( 'NONE', #133, 39.37007874015748854 ) ;
#4 = DIRECTION ( 'NONE',  ( -0.000000000000000000, -0.000000000000000000, -1.000000000000000000 ) ) ;
#5 = CARTESIAN_POINT ( 'NONE',  ( 0.1111399268190029627, 0.1925000000000000044, 0.03125000000000000000 ) ) ;
#6 =( NAMED_UNIT ( * ) PLANE_ANGLE_UNIT ( ) SI_UNIT ( $, .RADIAN. ) );
#7 = EDGE_LOOP ( 'NONE', ( #218, #10, #228, #68, #283, #326 ) ) ;
#8 = APPLICATION_PROTOCOL_DEFINITION ( 'draft international standard', 'automotive_design', 1998, #94 ) ;
#9 = VECTOR ( 'NONE', #54, 39.37007874015748143 ) ;
#10 = ORIENTED_EDGE ( 'NONE', *, *, #176, .T. ) ;
#11 =( CONVERSION_BASED_UNIT ( 'INCH', #224 ) LENGTH_UNIT ( ) NAMED_UNIT ( #334 ) );
#12 = ORIENTED_EDGE ( 'NONE', *, *, #327, .T. ) ;
#13 = VERTEX_POINT ( 'NONE', #27 ) ;
#14 = CARTESIAN_POINT ( 'NONE',  ( 0.1111399268190030043, -0.1925000000000000044, -0.03125000000000000000 ) ) ;
#15 = DIRECTION ( 'NONE',  ( 1.000000000000000000, 1.536266079084936861E-16, 0.000000000000000000 ) ) ;
#16 = LINE ( 'NONE', #132, #128 ) ;
#17 = PRODUCT_DEFINITION ( 'UNKNOWN', '', #278, #38 ) ;
#18 = DIRECTION ( 'NONE',  ( -0.4999999999999998335, 0.8660254037844388186, 0.000000000000000000 ) ) ;
#19 = CARTESIAN_POINT ( 'NONE',  ( -0.2222798536380058143, 3.414809992080329023E-17, 0.03125000000000000000 ) ) ;
#20 = EDGE_LOOP ( 'NONE', ( #12, #336 ) ) ;
#21 = DIRECTION ( 'NONE',  ( -0.8660254037844387076, 0.4999999999999999445, 0.000000000000000000 ) ) ;
#22 = FACE_BOUND ( 'NONE', #7, .T. ) ;
#23 = FACE_OUTER_BOUND ( 'NONE', #124, .T. ) ;
#24 = COLOUR_RGB ( '',0.8666666666666666963, 0.9098039215686274384, 1.000000000000000000 ) ;
#25 = FACE_OUTER_BOUND ( 'NONE', #148, .T. ) ;
#26 = CARTESIAN_POINT ( 'NONE',  ( 0.000000000000000000, 0.000000000000000000, 0.03125000000000000000 ) ) ;
#27 = CARTESIAN_POINT ( 'NONE',  ( -0.1111399268190028794, -0.1925000000000000044, -0.03125000000000000000 ) ) ;
#28 = LENGTH_MEASURE_WITH_UNIT ( LENGTH_MEASURE( 0.02539999999999999897 ), #193 );
#29 = CARTESIAN_POINT ( 'NONE',  ( 0.2222798536380058976, -8.569712686068203092E-17, 0.03125000000000000000 ) ) ;
#30 = CARTESIAN_POINT ( 'NONE',  ( -0.1111399268190028794, 0.1924999999999999212, -0.03125000000000000000 ) ) ;
#31 = DIRECTION ( 'NONE',  ( -1.000000000000000000, -3.072532158169873721E-16, 0.000000000000000000 ) ) ;
#32 = VECTOR ( 'NONE', #51, 39.37007874015748854 ) ;
#33 = CARTESIAN_POINT ( 'NONE',  ( -0.1111399268190028794, 0.1924999999999999212, 0.03125000000000000000 ) ) ;
#34 = EDGE_CURVE ( 'NONE', #255, #13, #64, .T. ) ;
#35 = MECHANICAL_DESIGN_GEOMETRIC_PRESENTATION_REPRESENTATION (  '', ( #60 ), #196 ) ;
#36 = EDGE_CURVE ( 'NONE', #90, #98, #16, .T. ) ;
#37 = EDGE_CURVE ( 'NONE', #151, #184, #78, .T. ) ;
#38 = PRODUCT_DEFINITION_CONTEXT ( 'detailed design', #166, 'design' ) ;
#39 = PRODUCT_DEFINITION_SHAPE ( 'NONE', 'NONE',  #17 ) ;
#40 = ADVANCED_FACE ( 'NONE', ( #23 ), #235, .T. ) ;
#41 = APPLICATION_PROTOCOL_DEFINITION ( 'draft international standard', 'automotive_design', 1998, #166 ) ;
#42 = ORIENTED_EDGE ( 'NONE', *, *, #92, .F. ) ;
#43 = SHAPE_DEFINITION_REPRESENTATION ( #39, #121 ) ;
#44 = ORIENTED_EDGE ( 'NONE', *, *, #223, .T. ) ;
#45 = PRESENTATION_STYLE_ASSIGNMENT (( #175 ) ) ;
#46 = ADVANCED_FACE ( 'NONE', ( #191, #188 ), #243, .T. ) ;
#47 = ORIENTED_EDGE ( 'NONE', *, *, #37, .T. ) ;
#48 = PLANE ( 'NONE',  #109 ) ;
#49 = ORIENTED_EDGE ( 'NONE', *, *, #223, .F. ) ;
#50 = VECTOR ( 'NONE', #343, 39.37007874015748143 ) ;
#51 = DIRECTION ( 'NONE',  ( -0.5000000000000000000, -0.8660254037844385966, 0.000000000000000000 ) ) ;
#52 =( NAMED_UNIT ( * ) PLANE_ANGLE_UNIT ( ) SI_UNIT ( $, .RADIAN. ) );
#53 = CARTESIAN_POINT ( 'NONE',  ( 0.000000000000000000, 0.000000000000000000, -0.03125000000000000000 ) ) ;
#54 = DIRECTION ( 'NONE',  ( -0.000000000000000000, -0.000000000000000000, -1.000000000000000000 ) ) ;
#55 = CARTESIAN_POINT ( 'NONE',  ( -0.3125000000000000000, 0.000000000000000000, 0.03125000000000000000 ) ) ;
#56 = CARTESIAN_POINT ( 'NONE',  ( 0.000000000000000000, 0.000000000000000000, 0.03125000000000000000 ) ) ;
#57 = CARTESIAN_POINT ( 'NONE',  ( 0.2222798536380058976, -8.569712686068203092E-17, -0.03125000000000000000 ) ) ;
#58 = DIRECTION ( 'NONE',  ( 1.000000000000000000, 0.000000000000000000, 0.000000000000000000 ) ) ;
#59 = DIRECTION ( 'NONE',  ( -1.000000000000000000, 0.000000000000000000, 0.000000000000000000 ) ) ;
#60 = STYLED_ITEM ( 'NONE', ( #45 ), #121 ) ;
#61 = EDGE_CURVE ( 'NONE', #108, #72, #253, .T. ) ;
#62 = CARTESIAN_POINT ( 'NONE',  ( -0.2222798536380058143, 3.123263141623795767E-17, 0.03125000000000000000 ) ) ;
#63 = CARTESIAN_POINT ( 'NONE',  ( 0.1111399268190030043, -0.1925000000000000044, -0.03125000000000000000 ) ) ;
#64 = LINE ( 'NONE', #238, #199 ) ;
#65 = LINE ( 'NONE', #33, #226 ) ;
#66 = ADVANCED_FACE ( 'NONE', ( #291 ), #264, .T. ) ;
#67 = AXIS2_PLACEMENT_3D ( 'NONE', #209, #186, #287 ) ;
#68 = ORIENTED_EDGE ( 'NONE', *, *, #92, .T. ) ;
#69 = UNCERTAINTY_MEASURE_WITH_UNIT (LENGTH_MEASURE( 1.000000000000000082E-05 ), #115, 'distance_accuracy_value', 'NONE');
#70 = ORIENTED_EDGE ( 'NONE', *, *, #162, .F. ) ;
#71 = VECTOR ( 'NONE', #167, 39.37007874015748143 ) ;
#72 = VERTEX_POINT ( 'NONE', #165 ) ;
#73 = EDGE_LOOP ( 'NONE', ( #101, #241 ) ) ;
#74 = EDGE_CURVE ( 'NONE', #312, #130, #298, .T. ) ;
#75 = CARTESIAN_POINT ( 'NONE',  ( -0.2222798536380058143, 3.123263141623795767E-17, 0.03125000000000000000 ) ) ;
#76 = ORIENTED_EDGE ( 'NONE', *, *, #301, .F. ) ;
#77 = CARTESIAN_POINT ( 'NONE',  ( 0.2222798536380058976, -8.569712686068203092E-17, -0.03125000000000000000 ) ) ;
#78 = LINE ( 'NONE', #29, #222 ) ;
#79 = VECTOR ( 'NONE', #4, 39.37007874015748143 ) ;
#80 = FACE_OUTER_BOUND ( 'NONE', #198, .T. ) ;
#81 = FILL_AREA_STYLE_COLOUR ( '', #24 ) ;
#82 = DIRECTION ( 'NONE',  ( -0.8660254037844388186, -0.4999999999999997224, 0.000000000000000000 ) ) ;
#83 = FACE_OUTER_BOUND ( 'NONE', #249, .T. ) ;
#84 = CARTESIAN_POINT ( 'NONE',  ( -0.1111399268190028794, 0.1924999999999999212, 0.03125000000000000000 ) ) ;
#85 = DIRECTION ( 'NONE',  ( 1.000000000000000000, 0.000000000000000000, -0.000000000000000000 ) ) ;
#86 = LINE ( 'NONE', #195, #117 ) ;
#87 = EDGE_LOOP ( 'NONE', ( #232, #229, #267, #182 ) ) ;
#88 = EDGE_CURVE ( 'NONE', #312, #255, #245, .T. ) ;
#89 = AXIS2_PLACEMENT_3D ( 'NONE', #252, #178, #309 ) ;
#90 = VERTEX_POINT ( 'NONE', #5 ) ;
#91 = SURFACE_SIDE_STYLE ('',( #227 ) ) ;
#92 = EDGE_CURVE ( 'NONE', #98, #127, #169, .T. ) ;
#93 = AXIS2_PLACEMENT_3D ( 'NONE', #53, #141, #158 ) ;
#94 = APPLICATION_CONTEXT ( 'automotive_design' ) ;
#95 = EDGE_CURVE ( 'NONE', #130, #13, #143, .T. ) ;
#96 = EDGE_CURVE ( 'NONE', #255, #204, #129, .T. ) ;
#97 = VECTOR ( 'NONE', #236, 39.37007874015748143 ) ;
#98 = VERTEX_POINT ( 'NONE', #315 ) ;
#99 = EDGE_CURVE ( 'NONE', #184, #98, #113, .T. ) ;
#100 = CARTESIAN_POINT ( 'NONE',  ( 0.1111399268190030043, -0.1925000000000000044, 0.03125000000000000000 ) ) ;
#101 = ORIENTED_EDGE ( 'NONE', *, *, #256, .F. ) ;
#102 = ADVANCED_FACE ( 'NONE', ( #316 ), #257, .T. ) ;
#103 = CARTESIAN_POINT ( 'NONE',  ( 0.2222798536380058976, -8.569712686068203092E-17, 0.03125000000000000000 ) ) ;
#104 = ORIENTED_EDGE ( 'NONE', *, *, #314, .F. ) ;
#105 = DIRECTION ( 'NONE',  ( 0.4999999999999998890, 0.8660254037844385966, 0.000000000000000000 ) ) ;
#106 = PRESENTATION_STYLE_ASSIGNMENT (( #119 ) ) ;
#107 = CLOSED_SHELL ( 'NONE', ( #333, #46, #299, #66, #123, #181, #40, #233, #258, #102 ) ) ;
#108 = VERTEX_POINT ( 'NONE', #290 ) ;
#109 = AXIS2_PLACEMENT_3D ( 'NONE', #189, #155, #139 ) ;
#110 = CARTESIAN_POINT ( 'NONE',  ( -0.1111399268190028655, -0.1925000000000000322, 0.03125000000000000000 ) ) ;
#111 = DIRECTION ( 'NONE',  ( -0.000000000000000000, -0.000000000000000000, -1.000000000000000000 ) ) ;
#112 = DIRECTION ( 'NONE',  ( -0.000000000000000000, -0.000000000000000000, -1.000000000000000000 ) ) ;
#113 = LINE ( 'NONE', #77, #247 ) ;
#114 = ORIENTED_EDGE ( 'NONE', *, *, #176, .F. ) ;
#115 =( CONVERSION_BASED_UNIT ( 'INCH', #28 ) LENGTH_UNIT ( ) NAMED_UNIT ( #277 ) );
#116 = ORIENTED_EDGE ( 'NONE', *, *, #327, .F. ) ;
#117 = VECTOR ( 'NONE', #200, 39.37007874015748143 ) ;
#118 = EDGE_CURVE ( 'NONE', #151, #90, #207, .T. ) ;
#119 = SURFACE_STYLE_USAGE ( .BOTH. , #217 ) ;
#120 = EDGE_CURVE ( 'NONE', #204, #151, #296, .T. ) ;
#121 = ADVANCED_BREP_SHAPE_REPRESENTATION ( 'WCP-0956 Rev1', ( #306, #89 ), #332 ) ;
#122 = AXIS2_PLACEMENT_3D ( 'NONE', #26, #244, #1 ) ;
#123 = ADVANCED_FACE ( 'NONE', ( #80 ), #48, .T. ) ;
#124 = EDGE_LOOP ( 'NONE', ( #282, #179, #276, #208 ) ) ;
#125 = FILL_AREA_STYLE ('',( #281 ) ) ;
#126 = MECHANICAL_DESIGN_GEOMETRIC_PRESENTATION_REPRESENTATION (  '', ( #202 ), #302 ) ;
#127 = VERTEX_POINT ( 'NONE', #153 ) ;
#128 = VECTOR ( 'NONE', #140, 39.37007874015748143 ) ;
#129 = LINE ( 'NONE', #110, #259 ) ;
#130 = VERTEX_POINT ( 'NONE', #234 ) ;
#131 = CARTESIAN_POINT ( 'NONE',  ( 0.2222798536380058976, -8.569712686068203092E-17, 0.03125000000000000000 ) ) ;
#132 = CARTESIAN_POINT ( 'NONE',  ( 0.1111399268190029627, 0.1925000000000000044, 0.03125000000000000000 ) ) ;
#133 = DIRECTION ( 'NONE',  ( -0.4999999999999997224, 0.8660254037844388186, 0.000000000000000000 ) ) ;
#134 = DIRECTION ( 'NONE',  ( -0.5000000000000000000, -0.8660254037844385966, 0.000000000000000000 ) ) ;
#135 = EDGE_LOOP ( 'NONE', ( #42, #308, #321, #289 ) ) ;
#136 = DIRECTION ( 'NONE',  ( -0.4999999999999998890, -0.8660254037844385966, 0.000000000000000000 ) ) ;
#137 = CARTESIAN_POINT ( 'NONE',  ( 0.3125000000000000000, 3.827021247335478926E-17, 0.03125000000000000000 ) ) ;
#138 = EDGE_LOOP ( 'NONE', ( #225, #145, #171, #317 ) ) ;
#139 = DIRECTION ( 'NONE',  ( -1.000000000000000000, -1.536266079084936861E-16, 0.000000000000000000 ) ) ;
#140 = DIRECTION ( 'NONE',  ( -0.000000000000000000, -0.000000000000000000, -1.000000000000000000 ) ) ;
#141 = DIRECTION ( 'NONE',  ( 0.000000000000000000, 0.000000000000000000, 1.000000000000000000 ) ) ;
#142 = DIRECTION ( 'NONE',  ( 1.000000000000000000, 0.000000000000000000, -0.000000000000000000 ) ) ;
#143 = LINE ( 'NONE', #156, #335 ) ;
#144 = AXIS2_PLACEMENT_3D ( 'NONE', #210, #269, #85 ) ;
#145 = ORIENTED_EDGE ( 'NONE', *, *, #270, .T. ) ;
#146 = DIMENSIONAL_EXPONENTS ( 1.000000000000000000, 0.000000000000000000, 0.000000000000000000, 0.000000000000000000, 0.000000000000000000, 0.000000000000000000, 0.000000000000000000 ) ;
#147 = EDGE_CURVE ( 'NONE', #204, #280, #284, .T. ) ;
#148 = EDGE_LOOP ( 'NONE', ( #104, #261, #44, #215 ) ) ;
#149 =( NAMED_UNIT ( * ) SI_UNIT ( $, .STERADIAN. ) SOLID_ANGLE_UNIT ( ) );
#150 = VECTOR ( 'NONE', #248, 39.37007874015748854 ) ;
#151 = VERTEX_POINT ( 'NONE', #131 ) ;
#152 = ORIENTED_EDGE ( 'NONE', *, *, #294, .T. ) ;
#153 = CARTESIAN_POINT ( 'NONE',  ( -0.1111399268190028794, 0.1924999999999999212, -0.03125000000000000000 ) ) ;
#154 = AXIS2_PLACEMENT_3D ( 'NONE', #271, #111, #323 ) ;
#155 = DIRECTION ( 'NONE',  ( -1.536266079084936861E-16, 1.000000000000000000, 0.000000000000000000 ) ) ;
#156 = CARTESIAN_POINT ( 'NONE',  ( -0.2222798536380058143, 3.123263141623795767E-17, -0.03125000000000000000 ) ) ;
#157 = LENGTH_MEASURE_WITH_UNIT ( LENGTH_MEASURE( 0.02539999999999999897 ), #190 );
#158 = DIRECTION ( 'NONE',  ( 1.000000000000000000, 0.000000000000000000, 0.000000000000000000 ) ) ;
#159 = LINE ( 'NONE', #14, #230 ) ;
#160 = LINE ( 'NONE', #30, #307 ) ;
#161 = ORIENTED_EDGE ( 'NONE', *, *, #270, .F. ) ;
#162 = EDGE_CURVE ( 'NONE', #90, #339, #322, .T. ) ;
#163 = DIRECTION ( 'NONE',  ( 1.000000000000000000, 3.072532158169873721E-16, 0.000000000000000000 ) ) ;
#164 = CARTESIAN_POINT ( 'NONE',  ( -0.1111399268190028655, -0.1925000000000000322, -0.03125000000000000000 ) ) ;
#165 = CARTESIAN_POINT ( 'NONE',  ( -0.3125000000000000000, 0.000000000000000000, -0.03125000000000000000 ) ) ;
#166 = APPLICATION_CONTEXT ( 'automotive_design' ) ;
#167 = DIRECTION ( 'NONE',  ( -0.000000000000000000, -0.000000000000000000, -1.000000000000000000 ) ) ;
#168 = FACE_OUTER_BOUND ( 'NONE', #73, .T. ) ;
#169 = LINE ( 'NONE', #273, #346 ) ;
#170 = AXIS2_PLACEMENT_3D ( 'NONE', #75, #262, #18 ) ;
#171 = ORIENTED_EDGE ( 'NONE', *, *, #61, .T. ) ;
#172 = DIRECTION ( 'NONE',  ( -0.000000000000000000, -0.000000000000000000, -1.000000000000000000 ) ) ;
#173 = AXIS2_PLACEMENT_3D ( 'NONE', #216, #350, #325 ) ;
#174 =( NAMED_UNIT ( * ) SI_UNIT ( $, .STERADIAN. ) SOLID_ANGLE_UNIT ( ) );
#175 = SURFACE_STYLE_USAGE ( .BOTH. , #91 ) ;
#176 = EDGE_CURVE ( 'NONE', #280, #184, #159, .T. ) ;
#177 = ORIENTED_EDGE ( 'NONE', *, *, #120, .F. ) ;
#178 = DIRECTION ( 'NONE',  ( 0.000000000000000000, 0.000000000000000000, 1.000000000000000000 ) ) ;
#179 = ORIENTED_EDGE ( 'NONE', *, *, #37, .F. ) ;
#180 = AXIS2_PLACEMENT_3D ( 'NONE', #187, #246, #142 ) ;
#181 = ADVANCED_FACE ( 'NONE', ( #83 ), #319, .T. ) ;
#182 = ORIENTED_EDGE ( 'NONE', *, *, #34, .T. ) ;
#183 = LINE ( 'NONE', #260, #32 ) ;
#184 = VERTEX_POINT ( 'NONE', #57 ) ;
#185 = AXIS2_PLACEMENT_3D ( 'NONE', #265, #21, #136 ) ;
#186 = DIRECTION ( 'NONE',  ( 0.000000000000000000, 0.000000000000000000, 1.000000000000000000 ) ) ;
#187 = CARTESIAN_POINT ( 'NONE',  ( 0.000000000000000000, 0.000000000000000000, -0.03125000000000000000 ) ) ;
#188 = FACE_BOUND ( 'NONE', #285, .T. ) ;
#189 = CARTESIAN_POINT ( 'NONE',  ( -0.1111399268190028655, -0.1925000000000000322, 0.03125000000000000000 ) ) ;
#190 =( LENGTH_UNIT ( ) NAMED_UNIT ( * ) SI_UNIT ( $, .METRE. ) );
#191 = FACE_OUTER_BOUND ( 'NONE', #20, .T. ) ;
#192 = CARTESIAN_POINT ( 'NONE',  ( 0.1111399268190029627, 0.1925000000000000044, 0.03125000000000000000 ) ) ;
#193 =( LENGTH_UNIT ( ) NAMED_UNIT ( * ) SI_UNIT ( $, .METRE. ) );
#194 = ORIENTED_EDGE ( 'NONE', *, *, #256, .T. ) ;
#195 = CARTESIAN_POINT ( 'NONE',  ( 0.3125000000000000000, 3.827021247335478926E-17, 0.03125000000000000000 ) ) ;
#196 =( GEOMETRIC_REPRESENTATION_CONTEXT ( 3 ) GLOBAL_UNCERTAINTY_ASSIGNED_CONTEXT ( ( #311 ) ) GLOBAL_UNIT_ASSIGNED_CONTEXT ( ( #11, #6, #174 ) ) REPRESENTATION_CONTEXT ( 'NONE', 'WORKASPACE' ) );
#197 = ORIENTED_EDGE ( 'NONE', *, *, #88, .F. ) ;
#198 = EDGE_LOOP ( 'NONE', ( #76, #279, #351, #324 ) ) ;
#199 = VECTOR ( 'NONE', #344, 39.37007874015748143 ) ;
#200 = DIRECTION ( 'NONE',  ( -0.000000000000000000, -0.000000000000000000, -1.000000000000000000 ) ) ;
#201 = CIRCLE ( 'NONE', #122, 0.3125000000000000000 ) ;
#202 = STYLED_ITEM ( 'NONE', ( #106 ), #306 ) ;
#203 = VECTOR ( 'NONE', #268, 39.37007874015748854 ) ;
#204 = VERTEX_POINT ( 'NONE', #100 ) ;
#205 = ORIENTED_EDGE ( 'NONE', *, *, #118, .F. ) ;
#206 = COLOUR_RGB ( '',0.8666666666666666963, 0.9098039215686274384, 1.000000000000000000 ) ;
#207 = LINE ( 'NONE', #103, #3 ) ;
#208 = ORIENTED_EDGE ( 'NONE', *, *, #36, .T. ) ;
#209 = CARTESIAN_POINT ( 'NONE',  ( 0.000000000000000000, 0.000000000000000000, -0.03125000000000000000 ) ) ;
#210 = CARTESIAN_POINT ( 'NONE',  ( 0.000000000000000000, 0.000000000000000000, 0.03125000000000000000 ) ) ;
#211 = DIRECTION ( 'NONE',  ( -0.4999999999999997224, 0.8660254037844388186, 0.000000000000000000 ) ) ;
#212 = FACE_OUTER_BOUND ( 'NONE', #138, .T. ) ;
#213 = CARTESIAN_POINT ( 'NONE',  ( 0.2222798536380058976, -8.569712686068203092E-17, 0.03125000000000000000 ) ) ;
#214 = CARTESIAN_POINT ( 'NONE',  ( 0.1111399268190030043, -0.1925000000000000044, 0.03125000000000000000 ) ) ;
#215 = ORIENTED_EDGE ( 'NONE', *, *, #74, .T. ) ;
#216 = CARTESIAN_POINT ( 'NONE',  ( -0.1111399268190028794, 0.1924999999999999212, 0.03125000000000000000 ) ) ;
#217 = SURFACE_SIDE_STYLE ('',( #240 ) ) ;
#218 = ORIENTED_EDGE ( 'NONE', *, *, #301, .T. ) ;
#219 =( NAMED_UNIT ( * ) PLANE_ANGLE_UNIT ( ) SI_UNIT ( $, .RADIAN. ) );
#220 = ORIENTED_EDGE ( 'NONE', *, *, #120, .T. ) ;
#221 = PLANE ( 'NONE',  #180 ) ;
#222 = VECTOR ( 'NONE', #112, 39.37007874015748143 ) ;
#223 = EDGE_CURVE ( 'NONE', #339, #312, #183, .T. ) ;
#224 = LENGTH_MEASURE_WITH_UNIT ( LENGTH_MEASURE( 0.02539999999999999897 ), #254 );
#225 = ORIENTED_EDGE ( 'NONE', *, *, #310, .F. ) ;
#226 = VECTOR ( 'NONE', #172, 39.37007874015748143 ) ;
#227 = SURFACE_STYLE_FILL_AREA ( #125 ) ;
#228 = ORIENTED_EDGE ( 'NONE', *, *, #99, .T. ) ;
#229 = ORIENTED_EDGE ( 'NONE', *, *, #74, .F. ) ;
#230 = VECTOR ( 'NONE', #105, 39.37007874015748854 ) ;
#231 = CARTESIAN_POINT ( 'NONE',  ( 0.1111399268190030043, -0.1925000000000000044, 0.03125000000000000000 ) ) ;
#232 = ORIENTED_EDGE ( 'NONE', *, *, #95, .F. ) ;
#233 = ADVANCED_FACE ( 'NONE', ( #340 ), #239, .T. ) ;
#234 = CARTESIAN_POINT ( 'NONE',  ( -0.2222798536380058143, 3.123263141623795767E-17, -0.03125000000000000000 ) ) ;
#235 = PLANE ( 'NONE',  #318 ) ;
#236 = DIRECTION ( 'NONE',  ( -1.000000000000000000, -3.072532158169873721E-16, 0.000000000000000000 ) ) ;
#237 = CARTESIAN_POINT ( 'NONE',  ( 0.000000000000000000, 0.000000000000000000, 0.03125000000000000000 ) ) ;
#238 = CARTESIAN_POINT ( 'NONE',  ( -0.1111399268190028655, -0.1925000000000000322, 0.03125000000000000000 ) ) ;
#239 = PLANE ( 'NONE',  #286 ) ;
#240 = SURFACE_STYLE_FILL_AREA ( #297 ) ;
#241 = ORIENTED_EDGE ( 'NONE', *, *, #61, .F. ) ;
#242 = PLANE ( 'NONE',  #173 ) ;
#243 = PLANE ( 'NONE',  #144 ) ;
#244 = DIRECTION ( 'NONE',  ( 0.000000000000000000, 0.000000000000000000, 1.000000000000000000 ) ) ;
#245 = LINE ( 'NONE', #2, #150 ) ;
#246 = DIRECTION ( 'NONE',  ( 0.000000000000000000, 0.000000000000000000, 1.000000000000000000 ) ) ;
#247 = VECTOR ( 'NONE', #211, 39.37007874015748854 ) ;
#248 = DIRECTION ( 'NONE',  ( 0.4999999999999998335, -0.8660254037844388186, 0.000000000000000000 ) ) ;
#249 = EDGE_LOOP ( 'NONE', ( #114, #341, #220, #47 ) ) ;
#250 = PRODUCT_RELATED_PRODUCT_CATEGORY ( 'part', '', ( #337 ) ) ;
#251 = PRESENTATION_LAYER_ASSIGNMENT (  '', '', ( #60 ) ) ;
#252 = CARTESIAN_POINT ( 'NONE',  ( 0.000000000000000000, 0.000000000000000000, 0.000000000000000000 ) ) ;
#253 = CIRCLE ( 'NONE', #93, 0.3125000000000000000 ) ;
#254 =( LENGTH_UNIT ( ) NAMED_UNIT ( * ) SI_UNIT ( $, .METRE. ) );
#255 = VERTEX_POINT ( 'NONE', #347 ) ;
#256 = EDGE_CURVE ( 'NONE', #72, #108, #328, .T. ) ;
#257 = PLANE ( 'NONE',  #170 ) ;
#258 = ADVANCED_FACE ( 'NONE', ( #25 ), #242, .T. ) ;
#259 = VECTOR ( 'NONE', #15, 39.37007874015748143 ) ;
#260 = CARTESIAN_POINT ( 'NONE',  ( -0.1111399268190028794, 0.1924999999999999212, 0.03125000000000000000 ) ) ;
#261 = ORIENTED_EDGE ( 'NONE', *, *, #274, .F. ) ;
#262 = DIRECTION ( 'NONE',  ( 0.8660254037844388186, 0.4999999999999998335, -0.000000000000000000 ) ) ;
#263 =( NAMED_UNIT ( * ) SI_UNIT ( $, .STERADIAN. ) SOLID_ANGLE_UNIT ( ) );
#264 = CYLINDRICAL_SURFACE ( 'NONE', #313, 0.3125000000000000000 ) ;
#265 = CARTESIAN_POINT ( 'NONE',  ( 0.1111399268190030043, -0.1925000000000000044, 0.03125000000000000000 ) ) ;
#266 = LINE ( 'NONE', #55, #79 ) ;
#267 = ORIENTED_EDGE ( 'NONE', *, *, #88, .T. ) ;
#268 = DIRECTION ( 'NONE',  ( 0.4999999999999998890, 0.8660254037844385966, 0.000000000000000000 ) ) ;
#269 = DIRECTION ( 'NONE',  ( 0.000000000000000000, 0.000000000000000000, 1.000000000000000000 ) ) ;
#270 = EDGE_CURVE ( 'NONE', #300, #108, #86, .T. ) ;
#271 = CARTESIAN_POINT ( 'NONE',  ( 0.000000000000000000, 0.000000000000000000, 0.03125000000000000000 ) ) ;
#272 = VERTEX_POINT ( 'NONE', #303 ) ;
#273 = CARTESIAN_POINT ( 'NONE',  ( 0.1111399268190029627, 0.1925000000000000044, -0.03125000000000000000 ) ) ;
#274 = EDGE_CURVE ( 'NONE', #339, #127, #65, .T. ) ;
#275 = PRESENTATION_LAYER_ASSIGNMENT (  '', '', ( #202 ) ) ;
#276 = ORIENTED_EDGE ( 'NONE', *, *, #118, .T. ) ;
#277 = DIMENSIONAL_EXPONENTS ( 1.000000000000000000, 0.000000000000000000, 0.000000000000000000, 0.000000000000000000, 0.000000000000000000, 0.000000000000000000, 0.000000000000000000 ) ;
#278 = PRODUCT_DEFINITION_FORMATION_WITH_SPECIFIED_SOURCE ( 'ANY', '', #337, .NOT_KNOWN. ) ;
#279 = ORIENTED_EDGE ( 'NONE', *, *, #34, .F. ) ;
#280 = VERTEX_POINT ( 'NONE', #63 ) ;
#281 = FILL_AREA_STYLE_COLOUR ( '', #206 ) ;
#282 = ORIENTED_EDGE ( 'NONE', *, *, #99, .F. ) ;
#283 = ORIENTED_EDGE ( 'NONE', *, *, #314, .T. ) ;
#284 = LINE ( 'NONE', #231, #9 ) ;
#285 = EDGE_LOOP ( 'NONE', ( #177, #331, #197, #49, #70, #205 ) ) ;
#286 = AXIS2_PLACEMENT_3D ( 'NONE', #192, #292, #163 ) ;
#287 = DIRECTION ( 'NONE',  ( 1.000000000000000000, 0.000000000000000000, 0.000000000000000000 ) ) ;
#288 =( CONVERSION_BASED_UNIT ( 'INCH', #157 ) LENGTH_UNIT ( ) NAMED_UNIT ( #146 ) );
#289 = ORIENTED_EDGE ( 'NONE', *, *, #274, .T. ) ;
#290 = CARTESIAN_POINT ( 'NONE',  ( 0.3125000000000000000, 3.827021247335478926E-17, -0.03125000000000000000 ) ) ;
#291 = FACE_OUTER_BOUND ( 'NONE', #329, .T. ) ;
#292 = DIRECTION ( 'NONE',  ( 3.072532158169873721E-16, -1.000000000000000000, 0.000000000000000000 ) ) ;
#293 = DIRECTION ( 'NONE',  ( -0.000000000000000000, -0.000000000000000000, -1.000000000000000000 ) ) ;
#294 = EDGE_CURVE ( 'NONE', #272, #72, #266, .T. ) ;
#295 = AXIS2_PLACEMENT_3D ( 'NONE', #237, #348, #58 ) ;
#296 = LINE ( 'NONE', #214, #203 ) ;
#297 = FILL_AREA_STYLE ('',( #81 ) ) ;
#298 = LINE ( 'NONE', #62, #71 ) ;
#299 = ADVANCED_FACE ( 'NONE', ( #168, #22 ), #221, .F. ) ;
#300 = VERTEX_POINT ( 'NONE', #137 ) ;
#301 = EDGE_CURVE ( 'NONE', #13, #280, #330, .T. ) ;
#302 =( GEOMETRIC_REPRESENTATION_CONTEXT ( 3 ) GLOBAL_UNCERTAINTY_ASSIGNED_CONTEXT ( ( #304 ) ) GLOBAL_UNIT_ASSIGNED_CONTEXT ( ( #288, #52, #263 ) ) REPRESENTATION_CONTEXT ( 'NONE', 'WORKASPACE' ) );
#303 = CARTESIAN_POINT ( 'NONE',  ( -0.3125000000000000000, 0.000000000000000000, 0.03125000000000000000 ) ) ;
#304 = UNCERTAINTY_MEASURE_WITH_UNIT (LENGTH_MEASURE( 1.000000000000000082E-05 ), #288, 'distance_accuracy_value', 'NONE');
#305 = PRODUCT_CONTEXT ( 'NONE', #94, 'mechanical' ) ;
#306 = MANIFOLD_SOLID_BREP ( 'Boss-Extrude1', #107 ) ;
#307 = VECTOR ( 'NONE', #134, 39.37007874015748854 ) ;
#308 = ORIENTED_EDGE ( 'NONE', *, *, #36, .F. ) ;
#309 = DIRECTION ( 'NONE',  ( 1.000000000000000000, 0.000000000000000000, 0.000000000000000000 ) ) ;
#310 = EDGE_CURVE ( 'NONE', #300, #272, #345, .T. ) ;
#311 = UNCERTAINTY_MEASURE_WITH_UNIT (LENGTH_MEASURE( 1.000000000000000082E-05 ), #11, 'distance_accuracy_value', 'NONE');
#312 = VERTEX_POINT ( 'NONE', #19 ) ;
#313 = AXIS2_PLACEMENT_3D ( 'NONE', #56, #293, #59 ) ;
#314 = EDGE_CURVE ( 'NONE', #127, #130, #160, .T. ) ;
#315 = CARTESIAN_POINT ( 'NONE',  ( 0.1111399268190029627, 0.1925000000000000044, -0.03125000000000000000 ) ) ;
#316 = FACE_OUTER_BOUND ( 'NONE', #87, .T. ) ;
#317 = ORIENTED_EDGE ( 'NONE', *, *, #294, .F. ) ;
#318 = AXIS2_PLACEMENT_3D ( 'NONE', #213, #82, #349 ) ;
#319 = PLANE ( 'NONE',  #185 ) ;
#320 = CYLINDRICAL_SURFACE ( 'NONE', #154, 0.3125000000000000000 ) ;
#321 = ORIENTED_EDGE ( 'NONE', *, *, #162, .T. ) ;
#322 = LINE ( 'NONE', #338, #97 ) ;
#323 = DIRECTION ( 'NONE',  ( -1.000000000000000000, 0.000000000000000000, 0.000000000000000000 ) ) ;
#324 = ORIENTED_EDGE ( 'NONE', *, *, #147, .T. ) ;
#325 = DIRECTION ( 'NONE',  ( 0.5000000000000000000, 0.8660254037844385966, 0.000000000000000000 ) ) ;
#326 = ORIENTED_EDGE ( 'NONE', *, *, #95, .T. ) ;
#327 = EDGE_CURVE ( 'NONE', #272, #300, #201, .T. ) ;
#328 = CIRCLE ( 'NONE', #67, 0.3125000000000000000 ) ;
#329 = EDGE_LOOP ( 'NONE', ( #161, #116, #152, #194 ) ) ;
#330 = LINE ( 'NONE', #164, #50 ) ;
#331 = ORIENTED_EDGE ( 'NONE', *, *, #96, .F. ) ;
#332 =( GEOMETRIC_REPRESENTATION_CONTEXT ( 3 ) GLOBAL_UNCERTAINTY_ASSIGNED_CONTEXT ( ( #69 ) ) GLOBAL_UNIT_ASSIGNED_CONTEXT ( ( #115, #219, #149 ) ) REPRESENTATION_CONTEXT ( 'NONE', 'WORKASPACE' ) );
#333 = ADVANCED_FACE ( 'NONE', ( #212 ), #320, .T. ) ;
#334 = DIMENSIONAL_EXPONENTS ( 1.000000000000000000, 0.000000000000000000, 0.000000000000000000, 0.000000000000000000, 0.000000000000000000, 0.000000000000000000, 0.000000000000000000 ) ;
#335 = VECTOR ( 'NONE', #342, 39.37007874015748854 ) ;
#336 = ORIENTED_EDGE ( 'NONE', *, *, #310, .T. ) ;
#337 = PRODUCT ( 'WCP-0956 Rev1', 'WCP-0956 Rev1', '', ( #305 ) ) ;
#338 = CARTESIAN_POINT ( 'NONE',  ( 0.1111399268190029627, 0.1925000000000000044, 0.03125000000000000000 ) ) ;
#339 = VERTEX_POINT ( 'NONE', #84 ) ;
#340 = FACE_OUTER_BOUND ( 'NONE', #135, .T. ) ;
#341 = ORIENTED_EDGE ( 'NONE', *, *, #147, .F. ) ;
#342 = DIRECTION ( 'NONE',  ( 0.4999999999999998335, -0.8660254037844388186, 0.000000000000000000 ) ) ;
#343 = DIRECTION ( 'NONE',  ( 1.000000000000000000, 1.536266079084936861E-16, 0.000000000000000000 ) ) ;
#344 = DIRECTION ( 'NONE',  ( -0.000000000000000000, -0.000000000000000000, -1.000000000000000000 ) ) ;
#345 = CIRCLE ( 'NONE', #295, 0.3125000000000000000 ) ;
#346 = VECTOR ( 'NONE', #31, 39.37007874015748143 ) ;
#347 = CARTESIAN_POINT ( 'NONE',  ( -0.1111399268190028655, -0.1925000000000000322, 0.03125000000000000000 ) ) ;
#348 = DIRECTION ( 'NONE',  ( 0.000000000000000000, 0.000000000000000000, 1.000000000000000000 ) ) ;
#349 = DIRECTION ( 'NONE',  ( 0.4999999999999997224, -0.8660254037844388186, 0.000000000000000000 ) ) ;
#350 = DIRECTION ( 'NONE',  ( 0.8660254037844387076, -0.5000000000000001110, 0.000000000000000000 ) ) ;
#351 = ORIENTED_EDGE ( 'NONE', *, *, #96, .T. ) ;
ENDSEC;
END-ISO-10303-21;
