ISO-10303-21;
HEADER;
FILE_DESCRIPTION (( 'STEP AP214' ),
    '1' );
FILE_NAME ('WCP-0955 Rev1.step',
    '2024-04-11T00:55:04',
    ( '' ),
    ( '' ),
    'SwSTEP 2.0',
    'SolidWorks 2022',
    '' );
FILE_SCHEMA (( 'AUTOMOTIVE_DESIGN' ));
ENDSEC;

DATA;
#1 = VERTEX_POINT ( 'NONE', #308 ) ;
#2 = EDGE_CURVE ( 'NONE', #108, #119, #167, .T. ) ;
#3 = AXIS2_PLACEMENT_3D ( 'NONE', #289, #295, #74 ) ;
#4 = MECHANICAL_DESIGN_GEOMETRIC_PRESENTATION_REPRESENTATION (  '', ( #151 ), #292 ) ;
#5 = ORIENTED_EDGE ( 'NONE', *, *, #188, .T. ) ;
#6 = ORIENTED_EDGE ( 'NONE', *, *, #113, .F. ) ;
#7 = FACE_OUTER_BOUND ( 'NONE', #336, .T. ) ;
#8 = UNCERTAINTY_MEASURE_WITH_UNIT (LENGTH_MEASURE( 1.000000000000000082E-05 ), #177, 'distance_accuracy_value', 'NONE');
#9 = DIRECTION ( 'NONE',  ( -0.000000000000000000, -0.000000000000000000, -1.000000000000000000 ) ) ;
#10 = CARTESIAN_POINT ( 'NONE',  ( 0.1111399268190030043, -0.1925000000000000044, 0.01562500000000000000 ) ) ;
#11 = PRODUCT ( 'WCP-0955 Rev1', 'WCP-0955 Rev1', '', ( #69 ) ) ;
#12 = VECTOR ( 'NONE', #43, 39.37007874015748854 ) ;
#13 = ORIENTED_EDGE ( 'NONE', *, *, #29, .F. ) ;
#14 = EDGE_CURVE ( 'NONE', #250, #60, #115, .T. ) ;
#15 = CARTESIAN_POINT ( 'NONE',  ( -0.1111399268190028794, 0.1924999999999999212, -0.01562500000000000000 ) ) ;
#16 = EDGE_LOOP ( 'NONE', ( #306, #221, #191, #311 ) ) ;
#17 = DIRECTION ( 'NONE',  ( -0.8660254037844387076, 0.4999999999999999445, 0.000000000000000000 ) ) ;
#18 = APPLICATION_CONTEXT ( 'automotive_design' ) ;
#19 = EDGE_CURVE ( 'NONE', #250, #32, #86, .T. ) ;
#20 = CARTESIAN_POINT ( 'NONE',  ( -0.1111399268190028655, -0.1925000000000000322, 0.01562500000000000000 ) ) ;
#21 =( NAMED_UNIT ( * ) PLANE_ANGLE_UNIT ( ) SI_UNIT ( $, .RADIAN. ) );
#22 = LINE ( 'NONE', #50, #304 ) ;
#23 = CARTESIAN_POINT ( 'NONE',  ( -0.3125000000000000000, 0.000000000000000000, 0.01562500000000000000 ) ) ;
#24 = DIRECTION ( 'NONE',  ( -1.000000000000000000, 0.000000000000000000, 0.000000000000000000 ) ) ;
#25 = DIRECTION ( 'NONE',  ( 0.000000000000000000, 0.000000000000000000, 1.000000000000000000 ) ) ;
#26 = DIRECTION ( 'NONE',  ( 0.8660254037844387076, -0.5000000000000001110, 0.000000000000000000 ) ) ;
#27 = EDGE_LOOP ( 'NONE', ( #202, #253, #54, #313 ) ) ;
#28 = ORIENTED_EDGE ( 'NONE', *, *, #55, .F. ) ;
#29 = EDGE_CURVE ( 'NONE', #112, #142, #298, .T. ) ;
#30 = VECTOR ( 'NONE', #174, 39.37007874015748143 ) ;
#31 = DIRECTION ( 'NONE',  ( -1.000000000000000000, -1.536266079084936861E-16, 0.000000000000000000 ) ) ;
#32 = VERTEX_POINT ( 'NONE', #128 ) ;
#33 = EDGE_CURVE ( 'NONE', #142, #112, #341, .T. ) ;
#34 = ORIENTED_EDGE ( 'NONE', *, *, #267, .T. ) ;
#35 = VECTOR ( 'NONE', #301, 39.37007874015748143 ) ;
#36 = EDGE_LOOP ( 'NONE', ( #331, #111, #283, #118 ) ) ;
#37 = LINE ( 'NONE', #143, #102 ) ;
#38 = CARTESIAN_POINT ( 'NONE',  ( -0.1111399268190028794, 0.1924999999999999212, 0.01562500000000000000 ) ) ;
#39 = DIRECTION ( 'NONE',  ( 0.000000000000000000, 0.000000000000000000, 1.000000000000000000 ) ) ;
#40 = CARTESIAN_POINT ( 'NONE',  ( 0.000000000000000000, 0.000000000000000000, 0.000000000000000000 ) ) ;
#41 = CIRCLE ( 'NONE', #325, 0.3125000000000000000 ) ;
#42 = ORIENTED_EDGE ( 'NONE', *, *, #100, .F. ) ;
#43 = DIRECTION ( 'NONE',  ( -0.4999999999999997224, 0.8660254037844388186, 0.000000000000000000 ) ) ;
#44 = CARTESIAN_POINT ( 'NONE',  ( -0.1111399268190028794, -0.1925000000000000044, -0.01562500000000000000 ) ) ;
#45 = ADVANCED_FACE ( 'NONE', ( #213 ), #265, .T. ) ;
#46 = CARTESIAN_POINT ( 'NONE',  ( 0.2222798536380058976, -8.569712686068203092E-17, -0.01562500000000000000 ) ) ;
#47 = SURFACE_SIDE_STYLE ('',( #288 ) ) ;
#48 = CARTESIAN_POINT ( 'NONE',  ( -0.2222798536380058143, 3.123263141623795767E-17, -0.01562500000000000000 ) ) ;
#49 = VECTOR ( 'NONE', #185, 39.37007874015748143 ) ;
#50 = CARTESIAN_POINT ( 'NONE',  ( 0.1111399268190029627, 0.1925000000000000044, 0.01562500000000000000 ) ) ;
#51 = CARTESIAN_POINT ( 'NONE',  ( 0.1111399268190030043, -0.1925000000000000044, -0.01562500000000000000 ) ) ;
#52 = DIRECTION ( 'NONE',  ( -0.4999999999999998335, 0.8660254037844388186, 0.000000000000000000 ) ) ;
#53 = LENGTH_MEASURE_WITH_UNIT ( LENGTH_MEASURE( 0.02539999999999999897 ), #274 );
#54 = ORIENTED_EDGE ( 'NONE', *, *, #217, .T. ) ;
#55 = EDGE_CURVE ( 'NONE', #138, #108, #208, .T. ) ;
#56 = CARTESIAN_POINT ( 'NONE',  ( 0.1111399268190029627, 0.1925000000000000044, -0.01562500000000000000 ) ) ;
#57 = ORIENTED_EDGE ( 'NONE', *, *, #259, .T. ) ;
#58 =( GEOMETRIC_REPRESENTATION_CONTEXT ( 3 ) GLOBAL_UNCERTAINTY_ASSIGNED_CONTEXT ( ( #268 ) ) GLOBAL_UNIT_ASSIGNED_CONTEXT ( ( #216, #133, #349 ) ) REPRESENTATION_CONTEXT ( 'NONE', 'WORKASPACE' ) );
#59 = LINE ( 'NONE', #285, #12 ) ;
#60 = VERTEX_POINT ( 'NONE', #51 ) ;
#61 = ORIENTED_EDGE ( 'NONE', *, *, #330, .T. ) ;
#62 = DIRECTION ( 'NONE',  ( 3.072532158169873721E-16, -1.000000000000000000, 0.000000000000000000 ) ) ;
#63 = SHAPE_DEFINITION_REPRESENTATION ( #310, #79 ) ;
#64 = MECHANICAL_DESIGN_GEOMETRIC_PRESENTATION_REPRESENTATION (  '', ( #329 ), #270 ) ;
#65 = ORIENTED_EDGE ( 'NONE', *, *, #19, .F. ) ;
#66 = CYLINDRICAL_SURFACE ( 'NONE', #314, 0.3125000000000000000 ) ;
#67 = CARTESIAN_POINT ( 'NONE',  ( 0.3125000000000000000, 3.827021247335478926E-17, 0.01562500000000000000 ) ) ;
#68 = PLANE ( 'NONE',  #166 ) ;
#69 = PRODUCT_CONTEXT ( 'NONE', #18, 'mechanical' ) ;
#70 = DIRECTION ( 'NONE',  ( -1.000000000000000000, -3.072532158169873721E-16, 0.000000000000000000 ) ) ;
#71 = DIRECTION ( 'NONE',  ( 0.000000000000000000, 0.000000000000000000, 1.000000000000000000 ) ) ;
#72 = VECTOR ( 'NONE', #261, 39.37007874015748854 ) ;
#73 = EDGE_CURVE ( 'NONE', #187, #119, #152, .T. ) ;
#74 = DIRECTION ( 'NONE',  ( 1.000000000000000000, 0.000000000000000000, 0.000000000000000000 ) ) ;
#75 = DIRECTION ( 'NONE',  ( 0.000000000000000000, 0.000000000000000000, 1.000000000000000000 ) ) ;
#76 = CARTESIAN_POINT ( 'NONE',  ( 0.2222798536380058976, -8.569712686068203092E-17, 0.01562500000000000000 ) ) ;
#77 = ORIENTED_EDGE ( 'NONE', *, *, #100, .T. ) ;
#78 = VECTOR ( 'NONE', #101, 39.37007874015748854 ) ;
#79 = ADVANCED_BREP_SHAPE_REPRESENTATION ( 'WCP-0955 Rev1', ( #335, #95 ), #58 ) ;
#80 = VERTEX_POINT ( 'NONE', #240 ) ;
#81 = ORIENTED_EDGE ( 'NONE', *, *, #14, .T. ) ;
#82 = APPLICATION_CONTEXT ( 'automotive_design' ) ;
#83 = ORIENTED_EDGE ( 'NONE', *, *, #276, .F. ) ;
#84 = ADVANCED_FACE ( 'NONE', ( #155 ), #269, .T. ) ;
#85 = VECTOR ( 'NONE', #9, 39.37007874015748143 ) ;
#86 = LINE ( 'NONE', #169, #246 ) ;
#87 = ORIENTED_EDGE ( 'NONE', *, *, #347, .T. ) ;
#88 = CARTESIAN_POINT ( 'NONE',  ( 0.1111399268190029627, 0.1925000000000000044, 0.01562500000000000000 ) ) ;
#89 = DIRECTION ( 'NONE',  ( 1.000000000000000000, 0.000000000000000000, 0.000000000000000000 ) ) ;
#90 = ADVANCED_FACE ( 'NONE', ( #211 ), #264, .T. ) ;
#91 = EDGE_LOOP ( 'NONE', ( #224, #248, #305, #87 ) ) ;
#92 = CARTESIAN_POINT ( 'NONE',  ( 0.2222798536380058976, -8.569712686068203092E-17, -0.01562500000000000000 ) ) ;
#93 = AXIS2_PLACEMENT_3D ( 'NONE', #293, #17, #342 ) ;
#94 = LINE ( 'NONE', #206, #228 ) ;
#95 = AXIS2_PLACEMENT_3D ( 'NONE', #40, #201, #89 ) ;
#96 = CARTESIAN_POINT ( 'NONE',  ( -0.2222798536380058143, 3.123263141623795767E-17, 0.01562500000000000000 ) ) ;
#97 = CARTESIAN_POINT ( 'NONE',  ( -0.3125000000000000000, 0.000000000000000000, 0.01562500000000000000 ) ) ;
#98 = CARTESIAN_POINT ( 'NONE',  ( -0.1111399268190028794, 0.1924999999999999212, -0.01562500000000000000 ) ) ;
#99 = FACE_OUTER_BOUND ( 'NONE', #27, .T. ) ;
#100 = EDGE_CURVE ( 'NONE', #80, #250, #348, .T. ) ;
#101 = DIRECTION ( 'NONE',  ( 0.4999999999999998335, -0.8660254037844388186, 0.000000000000000000 ) ) ;
#102 = VECTOR ( 'NONE', #254, 39.37007874015748854 ) ;
#103 = DIRECTION ( 'NONE',  ( -1.000000000000000000, -3.072532158169873721E-16, 0.000000000000000000 ) ) ;
#104 = FACE_BOUND ( 'NONE', #141, .T. ) ;
#105 = EDGE_CURVE ( 'NONE', #284, #134, #178, .T. ) ;
#106 = LENGTH_MEASURE_WITH_UNIT ( LENGTH_MEASURE( 0.02539999999999999897 ), #219 );
#107 =( CONVERSION_BASED_UNIT ( 'INCH', #53 ) LENGTH_UNIT ( ) NAMED_UNIT ( #137 ) );
#108 = VERTEX_POINT ( 'NONE', #286 ) ;
#109 = AXIS2_PLACEMENT_3D ( 'NONE', #127, #243, #24 ) ;
#110 = FILL_AREA_STYLE ('',( #220 ) ) ;
#111 = ORIENTED_EDGE ( 'NONE', *, *, #330, .F. ) ;
#112 = VERTEX_POINT ( 'NONE', #215 ) ;
#113 = EDGE_CURVE ( 'NONE', #134, #60, #183, .T. ) ;
#114 = ORIENTED_EDGE ( 'NONE', *, *, #55, .T. ) ;
#115 = LINE ( 'NONE', #226, #121 ) ;
#116 = VECTOR ( 'NONE', #204, 39.37007874015748854 ) ;
#117 = APPLICATION_PROTOCOL_DEFINITION ( 'draft international standard', 'automotive_design', 1998, #82 ) ;
#118 = ORIENTED_EDGE ( 'NONE', *, *, #29, .T. ) ;
#119 = VERTEX_POINT ( 'NONE', #98 ) ;
#120 = CARTESIAN_POINT ( 'NONE',  ( 0.1111399268190029627, 0.1925000000000000044, -0.01562500000000000000 ) ) ;
#121 = VECTOR ( 'NONE', #334, 39.37007874015748143 ) ;
#122 = CARTESIAN_POINT ( 'NONE',  ( 0.000000000000000000, 0.000000000000000000, -0.01562500000000000000 ) ) ;
#123 = SURFACE_STYLE_USAGE ( .BOTH. , #47 ) ;
#124 = APPLICATION_PROTOCOL_DEFINITION ( 'draft international standard', 'automotive_design', 1998, #18 ) ;
#125 = DIRECTION ( 'NONE',  ( -0.000000000000000000, -0.000000000000000000, -1.000000000000000000 ) ) ;
#126 = EDGE_CURVE ( 'NONE', #138, #187, #22, .T. ) ;
#127 = CARTESIAN_POINT ( 'NONE',  ( 0.000000000000000000, 0.000000000000000000, 0.01562500000000000000 ) ) ;
#128 = CARTESIAN_POINT ( 'NONE',  ( 0.2222798536380058976, -8.569712686068203092E-17, 0.01562500000000000000 ) ) ;
#129 = DIRECTION ( 'NONE',  ( -0.000000000000000000, -0.000000000000000000, -1.000000000000000000 ) ) ;
#130 = VECTOR ( 'NONE', #320, 39.37007874015748143 ) ;
#131 = LINE ( 'NONE', #317, #291 ) ;
#132 = VERTEX_POINT ( 'NONE', #97 ) ;
#133 =( NAMED_UNIT ( * ) PLANE_ANGLE_UNIT ( ) SI_UNIT ( $, .RADIAN. ) );
#134 = VERTEX_POINT ( 'NONE', #44 ) ;
#135 = CLOSED_SHELL ( 'NONE', ( #84, #302, #140, #170, #343, #45, #207, #233, #90, #327 ) ) ;
#136 = LINE ( 'NONE', #76, #35 ) ;
#137 = DIMENSIONAL_EXPONENTS ( 1.000000000000000000, 0.000000000000000000, 0.000000000000000000, 0.000000000000000000, 0.000000000000000000, 0.000000000000000000, 0.000000000000000000 ) ;
#138 = VERTEX_POINT ( 'NONE', #319 ) ;
#139 = AXIS2_PLACEMENT_3D ( 'NONE', #162, #351, #168 ) ;
#140 = ADVANCED_FACE ( 'NONE', ( #260, #238 ), #344, .F. ) ;
#141 = EDGE_LOOP ( 'NONE', ( #65, #42, #281, #328, #28, #278 ) ) ;
#142 = VERTEX_POINT ( 'NONE', #339 ) ;
#143 = CARTESIAN_POINT ( 'NONE',  ( 0.1111399268190030043, -0.1925000000000000044, -0.01562500000000000000 ) ) ;
#144 = ORIENTED_EDGE ( 'NONE', *, *, #126, .T. ) ;
#145 = VECTOR ( 'NONE', #129, 39.37007874015748143 ) ;
#146 = ORIENTED_EDGE ( 'NONE', *, *, #188, .F. ) ;
#147 = CARTESIAN_POINT ( 'NONE',  ( 0.3125000000000000000, 3.827021247335478926E-17, 0.01562500000000000000 ) ) ;
#148 = CARTESIAN_POINT ( 'NONE',  ( 0.1111399268190029627, 0.1925000000000000044, 0.01562500000000000000 ) ) ;
#149 = DIRECTION ( 'NONE',  ( 0.5000000000000000000, 0.8660254037844385966, 0.000000000000000000 ) ) ;
#150 = EDGE_CURVE ( 'NONE', #108, #1, #94, .T. ) ;
#151 = STYLED_ITEM ( 'NONE', ( #161 ), #79 ) ;
#152 = LINE ( 'NONE', #120, #212 ) ;
#153 = DIRECTION ( 'NONE',  ( -0.000000000000000000, -0.000000000000000000, -1.000000000000000000 ) ) ;
#154 = DIRECTION ( 'NONE',  ( -0.000000000000000000, -0.000000000000000000, -1.000000000000000000 ) ) ;
#155 = FACE_OUTER_BOUND ( 'NONE', #255, .T. ) ;
#156 = DIRECTION ( 'NONE',  ( 1.000000000000000000, 0.000000000000000000, 0.000000000000000000 ) ) ;
#157 = AXIS2_PLACEMENT_3D ( 'NONE', #294, #75, #209 ) ;
#158 = CARTESIAN_POINT ( 'NONE',  ( 0.000000000000000000, 0.000000000000000000, 0.01562500000000000000 ) ) ;
#159 = FACE_OUTER_BOUND ( 'NONE', #332, .T. ) ;
#160 =( NAMED_UNIT ( * ) SI_UNIT ( $, .STERADIAN. ) SOLID_ANGLE_UNIT ( ) );
#161 = PRESENTATION_STYLE_ASSIGNMENT (( #303 ) ) ;
#162 = CARTESIAN_POINT ( 'NONE',  ( 0.2222798536380058976, -8.569712686068203092E-17, 0.01562500000000000000 ) ) ;
#163 = ORIENTED_EDGE ( 'NONE', *, *, #73, .T. ) ;
#164 =( LENGTH_UNIT ( ) NAMED_UNIT ( * ) SI_UNIT ( $, .METRE. ) );
#165 = EDGE_LOOP ( 'NONE', ( #13, #203 ) ) ;
#166 = AXIS2_PLACEMENT_3D ( 'NONE', #88, #62, #282 ) ;
#167 = LINE ( 'NONE', #38, #85 ) ;
#168 = DIRECTION ( 'NONE',  ( 0.4999999999999997224, -0.8660254037844388186, 0.000000000000000000 ) ) ;
#169 = CARTESIAN_POINT ( 'NONE',  ( 0.1111399268190030043, -0.1925000000000000044, 0.01562500000000000000 ) ) ;
#170 = ADVANCED_FACE ( 'NONE', ( #236 ), #66, .T. ) ;
#171 = VERTEX_POINT ( 'NONE', #46 ) ;
#172 = DIRECTION ( 'NONE',  ( -0.5000000000000000000, -0.8660254037844385966, 0.000000000000000000 ) ) ;
#173 = AXIS2_PLACEMENT_3D ( 'NONE', #122, #71, #234 ) ;
#174 = DIRECTION ( 'NONE',  ( 1.000000000000000000, 1.536266079084936861E-16, 0.000000000000000000 ) ) ;
#175 = CARTESIAN_POINT ( 'NONE',  ( 0.000000000000000000, 0.000000000000000000, 0.01562500000000000000 ) ) ;
#176 = FILL_AREA_STYLE ('',( #340 ) ) ;
#177 =( CONVERSION_BASED_UNIT ( 'INCH', #210 ) LENGTH_UNIT ( ) NAMED_UNIT ( #249 ) );
#178 = LINE ( 'NONE', #48, #78 ) ;
#179 = CARTESIAN_POINT ( 'NONE',  ( 0.000000000000000000, 0.000000000000000000, 0.01562500000000000000 ) ) ;
#180 = CIRCLE ( 'NONE', #222, 0.3125000000000000000 ) ;
#181 = DIRECTION ( 'NONE',  ( -0.5000000000000000000, -0.8660254037844385966, 0.000000000000000000 ) ) ;
#182 = EDGE_CURVE ( 'NONE', #80, #134, #262, .T. ) ;
#183 = LINE ( 'NONE', #321, #30 ) ;
#184 = CARTESIAN_POINT ( 'NONE',  ( -0.2222798536380058143, 3.123263141623795767E-17, -0.01562500000000000000 ) ) ;
#185 = DIRECTION ( 'NONE',  ( -0.000000000000000000, -0.000000000000000000, -1.000000000000000000 ) ) ;
#186 = AXIS2_PLACEMENT_3D ( 'NONE', #326, #272, #31 ) ;
#187 = VERTEX_POINT ( 'NONE', #56 ) ;
#188 = EDGE_CURVE ( 'NONE', #273, #132, #180, .T. ) ;
#189 = DIRECTION ( 'NONE',  ( 1.000000000000000000, 0.000000000000000000, 0.000000000000000000 ) ) ;
#190 = FACE_OUTER_BOUND ( 'NONE', #198, .T. ) ;
#191 = ORIENTED_EDGE ( 'NONE', *, *, #150, .T. ) ;
#192 = SURFACE_STYLE_FILL_AREA ( #110 ) ;
#193 = ORIENTED_EDGE ( 'NONE', *, *, #113, .T. ) ;
#194 = VECTOR ( 'NONE', #154, 39.37007874015748143 ) ;
#195 = ORIENTED_EDGE ( 'NONE', *, *, #2, .T. ) ;
#196 = DIMENSIONAL_EXPONENTS ( 1.000000000000000000, 0.000000000000000000, 0.000000000000000000, 0.000000000000000000, 0.000000000000000000, 0.000000000000000000, 0.000000000000000000 ) ;
#197 = EDGE_LOOP ( 'NONE', ( #193, #258, #225, #163, #57, #337 ) ) ;
#198 = EDGE_LOOP ( 'NONE', ( #6, #300, #77, #81 ) ) ;
#199 = PRESENTATION_LAYER_ASSIGNMENT (  '', '', ( #151 ) ) ;
#200 = DIRECTION ( 'NONE',  ( 0.4999999999999998890, 0.8660254037844385966, 0.000000000000000000 ) ) ;
#201 = DIRECTION ( 'NONE',  ( 0.000000000000000000, 0.000000000000000000, 1.000000000000000000 ) ) ;
#202 = ORIENTED_EDGE ( 'NONE', *, *, #105, .F. ) ;
#203 = ORIENTED_EDGE ( 'NONE', *, *, #33, .F. ) ;
#204 = DIRECTION ( 'NONE',  ( -0.4999999999999997224, 0.8660254037844388186, 0.000000000000000000 ) ) ;
#205 = VECTOR ( 'NONE', #70, 39.37007874015748143 ) ;
#206 = CARTESIAN_POINT ( 'NONE',  ( -0.1111399268190028794, 0.1924999999999999212, 0.01562500000000000000 ) ) ;
#207 = ADVANCED_FACE ( 'NONE', ( #159 ), #275, .T. ) ;
#208 = LINE ( 'NONE', #148, #205 ) ;
#209 = DIRECTION ( 'NONE',  ( 1.000000000000000000, 0.000000000000000000, -0.000000000000000000 ) ) ;
#210 = LENGTH_MEASURE_WITH_UNIT ( LENGTH_MEASURE( 0.02539999999999999897 ), #164 );
#211 = FACE_OUTER_BOUND ( 'NONE', #16, .T. ) ;
#212 = VECTOR ( 'NONE', #103, 39.37007874015748143 ) ;
#213 = FACE_OUTER_BOUND ( 'NONE', #91, .T. ) ;
#214 = PRODUCT_DEFINITION_CONTEXT ( 'detailed design', #82, 'design' ) ;
#215 = CARTESIAN_POINT ( 'NONE',  ( -0.3125000000000000000, 0.000000000000000000, -0.01562500000000000000 ) ) ;
#216 =( CONVERSION_BASED_UNIT ( 'INCH', #106 ) LENGTH_UNIT ( ) NAMED_UNIT ( #196 ) );
#217 = EDGE_CURVE ( 'NONE', #1, #80, #338, .T. ) ;
#218 = ORIENTED_EDGE ( 'NONE', *, *, #280, .F. ) ;
#219 =( LENGTH_UNIT ( ) NAMED_UNIT ( * ) SI_UNIT ( $, .METRE. ) );
#220 = FILL_AREA_STYLE_COLOUR ( '', #263 ) ;
#221 = ORIENTED_EDGE ( 'NONE', *, *, #2, .F. ) ;
#222 = AXIS2_PLACEMENT_3D ( 'NONE', #158, #247, #189 ) ;
#223 = SURFACE_SIDE_STYLE ('',( #192 ) ) ;
#224 = ORIENTED_EDGE ( 'NONE', *, *, #241, .F. ) ;
#225 = ORIENTED_EDGE ( 'NONE', *, *, #276, .T. ) ;
#226 = CARTESIAN_POINT ( 'NONE',  ( 0.1111399268190030043, -0.1925000000000000044, 0.01562500000000000000 ) ) ;
#227 = PRODUCT_DEFINITION ( 'UNKNOWN', '', #299, #214 ) ;
#228 = VECTOR ( 'NONE', #181, 39.37007874015748854 ) ;
#229 = ORIENTED_EDGE ( 'NONE', *, *, #33, .T. ) ;
#230 = UNCERTAINTY_MEASURE_WITH_UNIT (LENGTH_MEASURE( 1.000000000000000082E-05 ), #107, 'distance_accuracy_value', 'NONE');
#231 = EDGE_LOOP ( 'NONE', ( #61, #5 ) ) ;
#232 = LINE ( 'NONE', #92, #116 ) ;
#233 = ADVANCED_FACE ( 'NONE', ( #7 ), #68, .T. ) ;
#234 = DIRECTION ( 'NONE',  ( 1.000000000000000000, 0.000000000000000000, -0.000000000000000000 ) ) ;
#235 = AXIS2_PLACEMENT_3D ( 'NONE', #239, #345, #52 ) ;
#236 = FACE_OUTER_BOUND ( 'NONE', #36, .T. ) ;
#237 = FACE_OUTER_BOUND ( 'NONE', #231, .T. ) ;
#238 = FACE_BOUND ( 'NONE', #197, .T. ) ;
#239 = CARTESIAN_POINT ( 'NONE',  ( -0.2222798536380058143, 3.123263141623795767E-17, 0.01562500000000000000 ) ) ;
#240 = CARTESIAN_POINT ( 'NONE',  ( -0.1111399268190028655, -0.1925000000000000322, 0.01562500000000000000 ) ) ;
#241 = EDGE_CURVE ( 'NONE', #60, #171, #37, .T. ) ;
#242 = COLOUR_RGB ( '',0.8666666666666666963, 0.9098039215686274384, 1.000000000000000000 ) ;
#243 = DIRECTION ( 'NONE',  ( -0.000000000000000000, -0.000000000000000000, -1.000000000000000000 ) ) ;
#244 = DIRECTION ( 'NONE',  ( -0.000000000000000000, -0.000000000000000000, -1.000000000000000000 ) ) ;
#245 = PRODUCT_RELATED_PRODUCT_CATEGORY ( 'part', '', ( #11 ) ) ;
#246 = VECTOR ( 'NONE', #200, 39.37007874015748854 ) ;
#247 = DIRECTION ( 'NONE',  ( 0.000000000000000000, 0.000000000000000000, 1.000000000000000000 ) ) ;
#248 = ORIENTED_EDGE ( 'NONE', *, *, #14, .F. ) ;
#249 = DIMENSIONAL_EXPONENTS ( 1.000000000000000000, 0.000000000000000000, 0.000000000000000000, 0.000000000000000000, 0.000000000000000000, 0.000000000000000000, 0.000000000000000000 ) ;
#250 = VERTEX_POINT ( 'NONE', #10 ) ;
#251 = PRESENTATION_LAYER_ASSIGNMENT (  '', '', ( #329 ) ) ;
#252 = ORIENTED_EDGE ( 'NONE', *, *, #126, .F. ) ;
#253 = ORIENTED_EDGE ( 'NONE', *, *, #297, .F. ) ;
#254 = DIRECTION ( 'NONE',  ( 0.4999999999999998890, 0.8660254037844385966, 0.000000000000000000 ) ) ;
#255 = EDGE_LOOP ( 'NONE', ( #146, #324, #229, #218 ) ) ;
#256 = AXIS2_PLACEMENT_3D ( 'NONE', #346, #26, #149 ) ;
#257 = LINE ( 'NONE', #15, #333 ) ;
#258 = ORIENTED_EDGE ( 'NONE', *, *, #241, .T. ) ;
#259 = EDGE_CURVE ( 'NONE', #119, #284, #257, .T. ) ;
#260 = FACE_OUTER_BOUND ( 'NONE', #165, .T. ) ;
#261 = DIRECTION ( 'NONE',  ( 0.4999999999999998335, -0.8660254037844388186, 0.000000000000000000 ) ) ;
#262 = LINE ( 'NONE', #20, #49 ) ;
#263 = COLOUR_RGB ( '',0.8666666666666666963, 0.9098039215686274384, 1.000000000000000000 ) ;
#264 = PLANE ( 'NONE',  #256 ) ;
#265 = PLANE ( 'NONE',  #93 ) ;
#266 = PLANE ( 'NONE',  #235 ) ;
#267 = EDGE_CURVE ( 'NONE', #32, #138, #59, .T. ) ;
#268 = UNCERTAINTY_MEASURE_WITH_UNIT (LENGTH_MEASURE( 1.000000000000000082E-05 ), #216, 'distance_accuracy_value', 'NONE');
#269 = CYLINDRICAL_SURFACE ( 'NONE', #109, 0.3125000000000000000 ) ;
#270 =( GEOMETRIC_REPRESENTATION_CONTEXT ( 3 ) GLOBAL_UNCERTAINTY_ASSIGNED_CONTEXT ( ( #230 ) ) GLOBAL_UNIT_ASSIGNED_CONTEXT ( ( #107, #323, #160 ) ) REPRESENTATION_CONTEXT ( 'NONE', 'WORKASPACE' ) );
#271 = PLANE ( 'NONE',  #186 ) ;
#272 = DIRECTION ( 'NONE',  ( -1.536266079084936861E-16, 1.000000000000000000, 0.000000000000000000 ) ) ;
#273 = VERTEX_POINT ( 'NONE', #147 ) ;
#274 =( LENGTH_UNIT ( ) NAMED_UNIT ( * ) SI_UNIT ( $, .METRE. ) );
#275 = PLANE ( 'NONE',  #139 ) ;
#276 = EDGE_CURVE ( 'NONE', #171, #187, #232, .T. ) ;
#277 = ORIENTED_EDGE ( 'NONE', *, *, #347, .F. ) ;
#278 = ORIENTED_EDGE ( 'NONE', *, *, #267, .F. ) ;
#279 = AXIS2_PLACEMENT_3D ( 'NONE', #309, #39, #318 ) ;
#280 = EDGE_CURVE ( 'NONE', #132, #112, #315, .T. ) ;
#281 = ORIENTED_EDGE ( 'NONE', *, *, #217, .F. ) ;
#282 = DIRECTION ( 'NONE',  ( 1.000000000000000000, 3.072532158169873721E-16, 0.000000000000000000 ) ) ;
#283 = ORIENTED_EDGE ( 'NONE', *, *, #280, .T. ) ;
#284 = VERTEX_POINT ( 'NONE', #184 ) ;
#285 = CARTESIAN_POINT ( 'NONE',  ( 0.2222798536380058976, -8.569712686068203092E-17, 0.01562500000000000000 ) ) ;
#286 = CARTESIAN_POINT ( 'NONE',  ( -0.1111399268190028794, 0.1924999999999999212, 0.01562500000000000000 ) ) ;
#287 = DIRECTION ( 'NONE',  ( -1.000000000000000000, 0.000000000000000000, 0.000000000000000000 ) ) ;
#288 = SURFACE_STYLE_FILL_AREA ( #176 ) ;
#289 = CARTESIAN_POINT ( 'NONE',  ( 0.000000000000000000, 0.000000000000000000, -0.01562500000000000000 ) ) ;
#290 = PRESENTATION_STYLE_ASSIGNMENT (( #123 ) ) ;
#291 = VECTOR ( 'NONE', #244, 39.37007874015748143 ) ;
#292 =( GEOMETRIC_REPRESENTATION_CONTEXT ( 3 ) GLOBAL_UNCERTAINTY_ASSIGNED_CONTEXT ( ( #8 ) ) GLOBAL_UNIT_ASSIGNED_CONTEXT ( ( #177, #21, #312 ) ) REPRESENTATION_CONTEXT ( 'NONE', 'WORKASPACE' ) );
#293 = CARTESIAN_POINT ( 'NONE',  ( 0.1111399268190030043, -0.1925000000000000044, 0.01562500000000000000 ) ) ;
#294 = CARTESIAN_POINT ( 'NONE',  ( 0.000000000000000000, 0.000000000000000000, 0.01562500000000000000 ) ) ;
#295 = DIRECTION ( 'NONE',  ( 0.000000000000000000, 0.000000000000000000, 1.000000000000000000 ) ) ;
#296 = LINE ( 'NONE', #67, #194 ) ;
#297 = EDGE_CURVE ( 'NONE', #1, #284, #131, .T. ) ;
#298 = CIRCLE ( 'NONE', #279, 0.3125000000000000000 ) ;
#299 = PRODUCT_DEFINITION_FORMATION_WITH_SPECIFIED_SOURCE ( 'ANY', '', #11, .NOT_KNOWN. ) ;
#300 = ORIENTED_EDGE ( 'NONE', *, *, #182, .F. ) ;
#301 = DIRECTION ( 'NONE',  ( -0.000000000000000000, -0.000000000000000000, -1.000000000000000000 ) ) ;
#302 = ADVANCED_FACE ( 'NONE', ( #237, #104 ), #322, .T. ) ;
#303 = SURFACE_STYLE_USAGE ( .BOTH. , #223 ) ;
#304 = VECTOR ( 'NONE', #125, 39.37007874015748143 ) ;
#305 = ORIENTED_EDGE ( 'NONE', *, *, #19, .T. ) ;
#306 = ORIENTED_EDGE ( 'NONE', *, *, #259, .F. ) ;
#307 = EDGE_CURVE ( 'NONE', #273, #142, #296, .T. ) ;
#308 = CARTESIAN_POINT ( 'NONE',  ( -0.2222798536380058143, 3.414809992080329023E-17, 0.01562500000000000000 ) ) ;
#309 = CARTESIAN_POINT ( 'NONE',  ( 0.000000000000000000, 0.000000000000000000, -0.01562500000000000000 ) ) ;
#310 = PRODUCT_DEFINITION_SHAPE ( 'NONE', 'NONE',  #227 ) ;
#311 = ORIENTED_EDGE ( 'NONE', *, *, #297, .T. ) ;
#312 =( NAMED_UNIT ( * ) SI_UNIT ( $, .STERADIAN. ) SOLID_ANGLE_UNIT ( ) );
#313 = ORIENTED_EDGE ( 'NONE', *, *, #182, .T. ) ;
#314 = AXIS2_PLACEMENT_3D ( 'NONE', #175, #153, #287 ) ;
#315 = LINE ( 'NONE', #23, #145 ) ;
#316 = CARTESIAN_POINT ( 'NONE',  ( -0.1111399268190028655, -0.1925000000000000322, 0.01562500000000000000 ) ) ;
#317 = CARTESIAN_POINT ( 'NONE',  ( -0.2222798536380058143, 3.123263141623795767E-17, 0.01562500000000000000 ) ) ;
#318 = DIRECTION ( 'NONE',  ( 1.000000000000000000, 0.000000000000000000, 0.000000000000000000 ) ) ;
#319 = CARTESIAN_POINT ( 'NONE',  ( 0.1111399268190029627, 0.1925000000000000044, 0.01562500000000000000 ) ) ;
#320 = DIRECTION ( 'NONE',  ( 1.000000000000000000, 1.536266079084936861E-16, 0.000000000000000000 ) ) ;
#321 = CARTESIAN_POINT ( 'NONE',  ( -0.1111399268190028655, -0.1925000000000000322, -0.01562500000000000000 ) ) ;
#322 = PLANE ( 'NONE',  #157 ) ;
#323 =( NAMED_UNIT ( * ) PLANE_ANGLE_UNIT ( ) SI_UNIT ( $, .RADIAN. ) );
#324 = ORIENTED_EDGE ( 'NONE', *, *, #307, .T. ) ;
#325 = AXIS2_PLACEMENT_3D ( 'NONE', #179, #25, #156 ) ;
#326 = CARTESIAN_POINT ( 'NONE',  ( -0.1111399268190028655, -0.1925000000000000322, 0.01562500000000000000 ) ) ;
#327 = ADVANCED_FACE ( 'NONE', ( #99 ), #266, .T. ) ;
#328 = ORIENTED_EDGE ( 'NONE', *, *, #150, .F. ) ;
#329 = STYLED_ITEM ( 'NONE', ( #290 ), #335 ) ;
#330 = EDGE_CURVE ( 'NONE', #132, #273, #41, .T. ) ;
#331 = ORIENTED_EDGE ( 'NONE', *, *, #307, .F. ) ;
#332 = EDGE_LOOP ( 'NONE', ( #83, #277, #34, #144 ) ) ;
#333 = VECTOR ( 'NONE', #172, 39.37007874015748854 ) ;
#334 = DIRECTION ( 'NONE',  ( -0.000000000000000000, -0.000000000000000000, -1.000000000000000000 ) ) ;
#335 = MANIFOLD_SOLID_BREP ( 'Boss-Extrude1', #135 ) ;
#336 = EDGE_LOOP ( 'NONE', ( #350, #252, #114, #195 ) ) ;
#337 = ORIENTED_EDGE ( 'NONE', *, *, #105, .T. ) ;
#338 = LINE ( 'NONE', #96, #72 ) ;
#339 = CARTESIAN_POINT ( 'NONE',  ( 0.3125000000000000000, 3.827021247335478926E-17, -0.01562500000000000000 ) ) ;
#340 = FILL_AREA_STYLE_COLOUR ( '', #242 ) ;
#341 = CIRCLE ( 'NONE', #3, 0.3125000000000000000 ) ;
#342 = DIRECTION ( 'NONE',  ( -0.4999999999999998890, -0.8660254037844385966, 0.000000000000000000 ) ) ;
#343 = ADVANCED_FACE ( 'NONE', ( #190 ), #271, .T. ) ;
#344 = PLANE ( 'NONE',  #173 ) ;
#345 = DIRECTION ( 'NONE',  ( 0.8660254037844388186, 0.4999999999999998335, -0.000000000000000000 ) ) ;
#346 = CARTESIAN_POINT ( 'NONE',  ( -0.1111399268190028794, 0.1924999999999999212, 0.01562500000000000000 ) ) ;
#347 = EDGE_CURVE ( 'NONE', #32, #171, #136, .T. ) ;
#348 = LINE ( 'NONE', #316, #130 ) ;
#349 =( NAMED_UNIT ( * ) SI_UNIT ( $, .STERADIAN. ) SOLID_ANGLE_UNIT ( ) );
#350 = ORIENTED_EDGE ( 'NONE', *, *, #73, .F. ) ;
#351 = DIRECTION ( 'NONE',  ( -0.8660254037844388186, -0.4999999999999997224, 0.000000000000000000 ) ) ;
ENDSEC;
END-ISO-10303-21;
