ISO-10303-21;
HEADER;
FILE_DESCRIPTION (( 'STEP AP214' ),
    '1' );
FILE_NAME ('WCP-0936 Rev1.step',
    '2023-12-29T01:05:59',
    ( '' ),
    ( '' ),
    'SwSTEP 2.0',
    'SolidWorks 2022',
    '' );
FILE_SCHEMA (( 'AUTOMOTIVE_DESIGN' ));
ENDSEC;

DATA;
#1 = CARTESIAN_POINT ( 'NONE',  ( 23.50000000000000000, 0.000000000000000000, 0.000000000000000000 ) ) ;
#2 = EDGE_LOOP ( 'NONE', ( #239, #215, #3, #197 ) ) ;
#3 = ORIENTED_EDGE ( 'NONE', *, *, #20, .T. ) ;
#4 = EDGE_CURVE ( 'NONE', #183, #166, #347, .T. ) ;
#5 = DIRECTION ( 'NONE',  ( 0.000000000000000000, 0.000000000000000000, -1.000000000000000000 ) ) ;
#6 = ORIENTED_EDGE ( 'NONE', *, *, #287, .T. ) ;
#7 = LINE ( 'NONE', #332, #102 ) ;
#8 = DIRECTION ( 'NONE',  ( 0.000000000000000000, -1.000000000000000000, 0.000000000000000000 ) ) ;
#9 = FACE_OUTER_BOUND ( 'NONE', #54, .T. ) ;
#10 =( NAMED_UNIT ( * ) PLANE_ANGLE_UNIT ( ) SI_UNIT ( $, .RADIAN. ) );
#11 = COLOUR_RGB ( '',0.8666666666666666963, 0.9098039215686274384, 1.000000000000000000 ) ;
#12 = LINE ( 'NONE', #228, #27 ) ;
#13 = DIRECTION ( 'NONE',  ( -1.000000000000000000, -0.000000000000000000, -0.000000000000000000 ) ) ;
#14 = EDGE_CURVE ( 'NONE', #162, #77, #7, .T. ) ;
#15 = PRODUCT_RELATED_PRODUCT_CATEGORY ( 'part', '', ( #145 ) ) ;
#16 = CARTESIAN_POINT ( 'NONE',  ( -23.50000000000000000, 0.9374999999999998890, -0.9375000000000000000 ) ) ;
#17 = VECTOR ( 'NONE', #250, 39.37007874015748143 ) ;
#18 = LINE ( 'NONE', #52, #58 ) ;
#19 = PRESENTATION_STYLE_ASSIGNMENT (( #22 ) ) ;
#20 = EDGE_CURVE ( 'NONE', #220, #219, #306, .T. ) ;
#21 = ORIENTED_EDGE ( 'NONE', *, *, #324, .F. ) ;
#22 = SURFACE_STYLE_USAGE ( .BOTH. , #155 ) ;
#23 = FACE_BOUND ( 'NONE', #131, .T. ) ;
#24 = APPLICATION_CONTEXT ( 'automotive_design' ) ;
#25 = ORIENTED_EDGE ( 'NONE', *, *, #153, .F. ) ;
#26 = LINE ( 'NONE', #163, #330 ) ;
#27 = VECTOR ( 'NONE', #333, 39.37007874015748143 ) ;
#28 = VERTEX_POINT ( 'NONE', #175 ) ;
#29 = ORIENTED_EDGE ( 'NONE', *, *, #237, .F. ) ;
#30 = ADVANCED_FACE ( 'NONE', ( #200 ), #227, .T. ) ;
#31 = LINE ( 'NONE', #139, #210 ) ;
#32 = ORIENTED_EDGE ( 'NONE', *, *, #279, .F. ) ;
#33 = DIRECTION ( 'NONE',  ( 1.000000000000000000, 0.000000000000000000, 0.000000000000000000 ) ) ;
#34 = ORIENTED_EDGE ( 'NONE', *, *, #20, .F. ) ;
#35 = CLOSED_SHELL ( 'NONE', ( #331, #82, #169, #229, #194, #207, #264, #30, #80, #88 ) ) ;
#36 = CARTESIAN_POINT ( 'NONE',  ( -23.50000000000000000, -1.000000000000000000, -1.000000000000000000 ) ) ;
#37 = PRODUCT_CONTEXT ( 'NONE', #344, 'mechanical' ) ;
#38 = CARTESIAN_POINT ( 'NONE',  ( 23.50000000000000000, -1.000000000000000000, 0.9999999999999998890 ) ) ;
#39 = CARTESIAN_POINT ( 'NONE',  ( -23.50000000000000000, 0.9999999999999998890, 0.9999999999999998890 ) ) ;
#40 = AXIS2_PLACEMENT_3D ( 'NONE', #282, #44, #73 ) ;
#41 = FACE_OUTER_BOUND ( 'NONE', #246, .T. ) ;
#42 = EDGE_CURVE ( 'NONE', #77, #265, #150, .T. ) ;
#43 = LINE ( 'NONE', #123, #216 ) ;
#44 = DIRECTION ( 'NONE',  ( 0.000000000000000000, 0.000000000000000000, 1.000000000000000000 ) ) ;
#45 =( GEOMETRIC_REPRESENTATION_CONTEXT ( 3 ) GLOBAL_UNCERTAINTY_ASSIGNED_CONTEXT ( ( #158 ) ) GLOBAL_UNIT_ASSIGNED_CONTEXT ( ( #48, #256, #259 ) ) REPRESENTATION_CONTEXT ( 'NONE', 'WORKASPACE' ) );
#46 = CARTESIAN_POINT ( 'NONE',  ( -23.50000000000000000, -0.9375000000000000000, -0.9375000000000000000 ) ) ;
#47 = EDGE_CURVE ( 'NONE', #166, #28, #226, .T. ) ;
#48 =( CONVERSION_BASED_UNIT ( 'INCH', #336 ) LENGTH_UNIT ( ) NAMED_UNIT ( #75 ) );
#49 = FACE_OUTER_BOUND ( 'NONE', #267, .T. ) ;
#50 = ORIENTED_EDGE ( 'NONE', *, *, #260, .T. ) ;
#51 = VECTOR ( 'NONE', #8, 39.37007874015748143 ) ;
#52 = CARTESIAN_POINT ( 'NONE',  ( -23.50000000000000000, 0.000000000000000000, 0.9374999999999998890 ) ) ;
#53 = ORIENTED_EDGE ( 'NONE', *, *, #133, .T. ) ;
#54 = EDGE_LOOP ( 'NONE', ( #62, #289, #53, #190 ) ) ;
#55 = ADVANCED_BREP_SHAPE_REPRESENTATION ( 'WCP-0936 Rev1', ( #213, #283 ), #160 ) ;
#56 = DIRECTION ( 'NONE',  ( 0.000000000000000000, 0.000000000000000000, -1.000000000000000000 ) ) ;
#57 = ORIENTED_EDGE ( 'NONE', *, *, #42, .T. ) ;
#58 = VECTOR ( 'NONE', #338, 39.37007874015748143 ) ;
#59 = CARTESIAN_POINT ( 'NONE',  ( -23.50000000000000000, -1.000000000000000000, 0.9999999999999998890 ) ) ;
#60 = AXIS2_PLACEMENT_3D ( 'NONE', #98, #152, #334 ) ;
#61 = EDGE_LOOP ( 'NONE', ( #115, #222, #263, #295 ) ) ;
#62 = ORIENTED_EDGE ( 'NONE', *, *, #204, .F. ) ;
#63 = VERTEX_POINT ( 'NONE', #100 ) ;
#64 = DIRECTION ( 'NONE',  ( -0.000000000000000000, -1.000000000000000000, -0.000000000000000000 ) ) ;
#65 = FILL_AREA_STYLE ('',( #327 ) ) ;
#66 = LINE ( 'NONE', #146, #51 ) ;
#67 = CARTESIAN_POINT ( 'NONE',  ( -23.50000000000000000, -1.000000000000000000, 0.9999999999999998890 ) ) ;
#68 =( NAMED_UNIT ( * ) PLANE_ANGLE_UNIT ( ) SI_UNIT ( $, .RADIAN. ) );
#69 = EDGE_CURVE ( 'NONE', #77, #144, #280, .T. ) ;
#70 = CARTESIAN_POINT ( 'NONE',  ( -23.50000000000000000, 0.000000000000000000, 0.000000000000000000 ) ) ;
#71 = CARTESIAN_POINT ( 'NONE',  ( 23.50000000000000000, 0.9374999999999998890, 0.000000000000000000 ) ) ;
#72 = FACE_OUTER_BOUND ( 'NONE', #2, .T. ) ;
#73 = DIRECTION ( 'NONE',  ( 1.000000000000000000, 0.000000000000000000, -0.000000000000000000 ) ) ;
#74 = VECTOR ( 'NONE', #114, 39.37007874015748143 ) ;
#75 = DIMENSIONAL_EXPONENTS ( 1.000000000000000000, 0.000000000000000000, 0.000000000000000000, 0.000000000000000000, 0.000000000000000000, 0.000000000000000000, 0.000000000000000000 ) ;
#76 = FILL_AREA_STYLE_COLOUR ( '', #11 ) ;
#77 = VERTEX_POINT ( 'NONE', #304 ) ;
#78 = DIRECTION ( 'NONE',  ( 0.000000000000000000, -0.000000000000000000, -1.000000000000000000 ) ) ;
#79 = DIRECTION ( 'NONE',  ( 0.000000000000000000, 1.000000000000000000, 0.000000000000000000 ) ) ;
#80 = ADVANCED_FACE ( 'NONE', ( #9 ), #224, .T. ) ;
#81 = EDGE_LOOP ( 'NONE', ( #188, #317, #211, #108 ) ) ;
#82 = ADVANCED_FACE ( 'NONE', ( #41, #174 ), #124, .F. ) ;
#83 = AXIS2_PLACEMENT_3D ( 'NONE', #70, #126, #329 ) ;
#84 = ORIENTED_EDGE ( 'NONE', *, *, #260, .F. ) ;
#85 = CARTESIAN_POINT ( 'NONE',  ( 23.50000000000000000, -1.000000000000000000, 0.9999999999999998890 ) ) ;
#86 = ORIENTED_EDGE ( 'NONE', *, *, #99, .F. ) ;
#87 = DIMENSIONAL_EXPONENTS ( 1.000000000000000000, 0.000000000000000000, 0.000000000000000000, 0.000000000000000000, 0.000000000000000000, 0.000000000000000000, 0.000000000000000000 ) ;
#88 = ADVANCED_FACE ( 'NONE', ( #96 ), #122, .T. ) ;
#89 = ORIENTED_EDGE ( 'NONE', *, *, #268, .F. ) ;
#90 = ORIENTED_EDGE ( 'NONE', *, *, #312, .F. ) ;
#91 =( CONVERSION_BASED_UNIT ( 'INCH', #323 ) LENGTH_UNIT ( ) NAMED_UNIT ( #87 ) );
#92 = LINE ( 'NONE', #315, #149 ) ;
#93 = ORIENTED_EDGE ( 'NONE', *, *, #324, .T. ) ;
#94 = DIRECTION ( 'NONE',  ( 0.000000000000000000, 1.000000000000000000, 0.000000000000000000 ) ) ;
#95 =( NAMED_UNIT ( * ) SI_UNIT ( $, .STERADIAN. ) SOLID_ANGLE_UNIT ( ) );
#96 = FACE_OUTER_BOUND ( 'NONE', #138, .T. ) ;
#97 = MECHANICAL_DESIGN_GEOMETRIC_PRESENTATION_REPRESENTATION (  '', ( #251 ), #346 ) ;
#98 = CARTESIAN_POINT ( 'NONE',  ( 23.50000000000000000, 0.000000000000000000, 0.9374999999999998890 ) ) ;
#99 = EDGE_CURVE ( 'NONE', #162, #112, #275, .T. ) ;
#100 = CARTESIAN_POINT ( 'NONE',  ( -23.50000000000000000, -0.9375000000000000000, 0.9374999999999998890 ) ) ;
#101 = CARTESIAN_POINT ( 'NONE',  ( 23.50000000000000000, 0.9999999999999998890, 0.9999999999999998890 ) ) ;
#102 = VECTOR ( 'NONE', #230, 39.37007874015748143 ) ;
#103 = CARTESIAN_POINT ( 'NONE',  ( 23.50000000000000000, -0.9375000000000000000, -0.9375000000000000000 ) ) ;
#104 =( LENGTH_UNIT ( ) NAMED_UNIT ( * ) SI_UNIT ( $, .METRE. ) );
#105 = DIMENSIONAL_EXPONENTS ( 1.000000000000000000, 0.000000000000000000, 0.000000000000000000, 0.000000000000000000, 0.000000000000000000, 0.000000000000000000, 0.000000000000000000 ) ;
#106 = VERTEX_POINT ( 'NONE', #281 ) ;
#107 = CARTESIAN_POINT ( 'NONE',  ( 23.50000000000000000, -1.000000000000000000, 0.9999999999999998890 ) ) ;
#108 = ORIENTED_EDGE ( 'NONE', *, *, #290, .T. ) ;
#109 = EDGE_CURVE ( 'NONE', #219, #166, #43, .T. ) ;
#110 = DIRECTION ( 'NONE',  ( 0.000000000000000000, -1.000000000000000000, 0.000000000000000000 ) ) ;
#111 = LINE ( 'NONE', #161, #74 ) ;
#112 = VERTEX_POINT ( 'NONE', #201 ) ;
#113 = VECTOR ( 'NONE', #13, 39.37007874015748143 ) ;
#114 = DIRECTION ( 'NONE',  ( 0.000000000000000000, 0.000000000000000000, -1.000000000000000000 ) ) ;
#115 = ORIENTED_EDGE ( 'NONE', *, *, #4, .T. ) ;
#116 = DIRECTION ( 'NONE',  ( 0.000000000000000000, 0.000000000000000000, -1.000000000000000000 ) ) ;
#117 = ORIENTED_EDGE ( 'NONE', *, *, #133, .F. ) ;
#118 = DIRECTION ( 'NONE',  ( -1.000000000000000000, -0.000000000000000000, -0.000000000000000000 ) ) ;
#119 = VERTEX_POINT ( 'NONE', #67 ) ;
#120 = VECTOR ( 'NONE', #79, 39.37007874015748143 ) ;
#121 = VERTEX_POINT ( 'NONE', #36 ) ;
#122 = PLANE ( 'NONE',  #187 ) ;
#123 = CARTESIAN_POINT ( 'NONE',  ( 23.50000000000000000, 0.9374999999999998890, -0.9375000000000000000 ) ) ;
#124 = PLANE ( 'NONE',  #83 ) ;
#125 = VECTOR ( 'NONE', #64, 39.37007874015748143 ) ;
#126 = DIRECTION ( 'NONE',  ( 1.000000000000000000, 0.000000000000000000, 0.000000000000000000 ) ) ;
#127 = DIRECTION ( 'NONE',  ( 0.000000000000000000, -1.000000000000000000, 0.000000000000000000 ) ) ;
#128 = DIRECTION ( 'NONE',  ( -0.000000000000000000, 1.000000000000000000, 0.000000000000000000 ) ) ;
#129 = VECTOR ( 'NONE', #116, 39.37007874015748143 ) ;
#130 = DIRECTION ( 'NONE',  ( 0.000000000000000000, 0.000000000000000000, 1.000000000000000000 ) ) ;
#131 = EDGE_LOOP ( 'NONE', ( #90, #34, #168, #117 ) ) ;
#132 = VECTOR ( 'NONE', #276, 39.37007874015748143 ) ;
#133 = EDGE_CURVE ( 'NONE', #106, #195, #66, .T. ) ;
#134 = ORIENTED_EDGE ( 'NONE', *, *, #287, .F. ) ;
#135 = PRESENTATION_LAYER_ASSIGNMENT (  '', '', ( #316 ) ) ;
#136 = DIRECTION ( 'NONE',  ( 0.000000000000000000, 0.000000000000000000, 1.000000000000000000 ) ) ;
#137 = EDGE_LOOP ( 'NONE', ( #93, #86, #84, #171 ) ) ;
#138 = EDGE_LOOP ( 'NONE', ( #89, #326, #318, #273 ) ) ;
#139 = CARTESIAN_POINT ( 'NONE',  ( 23.50000000000000000, -1.000000000000000000, 0.9999999999999998890 ) ) ;
#140 = ORIENTED_EDGE ( 'NONE', *, *, #14, .T. ) ;
#141 = APPLICATION_PROTOCOL_DEFINITION ( 'draft international standard', 'automotive_design', 1998, #24 ) ;
#142 = EDGE_CURVE ( 'NONE', #339, #121, #302, .T. ) ;
#143 = AXIS2_PLACEMENT_3D ( 'NONE', #314, #110, #78 ) ;
#144 = VERTEX_POINT ( 'NONE', #38 ) ;
#145 = PRODUCT ( 'WCP-0936 Rev1', 'WCP-0936 Rev1', '', ( #37 ) ) ;
#146 = CARTESIAN_POINT ( 'NONE',  ( 23.50000000000000000, 0.000000000000000000, 0.9374999999999998890 ) ) ;
#147 = CARTESIAN_POINT ( 'NONE',  ( 23.50000000000000000, 0.000000000000000000, -0.9375000000000000000 ) ) ;
#148 = PRESENTATION_STYLE_ASSIGNMENT (( #223 ) ) ;
#149 = VECTOR ( 'NONE', #189, 39.37007874015748143 ) ;
#150 = LINE ( 'NONE', #101, #231 ) ;
#151 = DIRECTION ( 'NONE',  ( -1.000000000000000000, -0.000000000000000000, -0.000000000000000000 ) ) ;
#152 = DIRECTION ( 'NONE',  ( 0.000000000000000000, 0.000000000000000000, -1.000000000000000000 ) ) ;
#153 = EDGE_CURVE ( 'NONE', #112, #265, #278, .T. ) ;
#154 = FACE_OUTER_BOUND ( 'NONE', #137, .T. ) ;
#155 = SURFACE_SIDE_STYLE ('',( #232 ) ) ;
#156 = PLANE ( 'NONE',  #178 ) ;
#157 = EDGE_CURVE ( 'NONE', #220, #183, #12, .T. ) ;
#158 = UNCERTAINTY_MEASURE_WITH_UNIT (LENGTH_MEASURE( 1.000000000000000082E-05 ), #48, 'distance_accuracy_value', 'NONE');
#159 = CARTESIAN_POINT ( 'NONE',  ( 23.50000000000000000, -0.9375000000000000000, 0.9374999999999998890 ) ) ;
#160 =( GEOMETRIC_REPRESENTATION_CONTEXT ( 3 ) GLOBAL_UNCERTAINTY_ASSIGNED_CONTEXT ( ( #225 ) ) GLOBAL_UNIT_ASSIGNED_CONTEXT ( ( #305, #68, #95 ) ) REPRESENTATION_CONTEXT ( 'NONE', 'WORKASPACE' ) );
#161 = CARTESIAN_POINT ( 'NONE',  ( 23.50000000000000000, -0.9375000000000000000, 0.000000000000000000 ) ) ;
#162 = VERTEX_POINT ( 'NONE', #202 ) ;
#163 = CARTESIAN_POINT ( 'NONE',  ( 23.50000000000000000, 0.9374999999999998890, 0.9374999999999998890 ) ) ;
#164 = ORIENTED_EDGE ( 'NONE', *, *, #341, .F. ) ;
#165 = PRESENTATION_LAYER_ASSIGNMENT (  '', '', ( #251 ) ) ;
#166 = VERTEX_POINT ( 'NONE', #16 ) ;
#167 = LINE ( 'NONE', #238, #193 ) ;
#168 = ORIENTED_EDGE ( 'NONE', *, *, #298, .F. ) ;
#169 = ADVANCED_FACE ( 'NONE', ( #154 ), #208, .F. ) ;
#170 = PRODUCT_DEFINITION ( 'UNKNOWN', '', #182, #245 ) ;
#171 = ORIENTED_EDGE ( 'NONE', *, *, #142, .T. ) ;
#172 = SHAPE_DEFINITION_REPRESENTATION ( #243, #55 ) ;
#173 = COLOUR_RGB ( '',0.8666666666666666963, 0.9098039215686274384, 1.000000000000000000 ) ;
#174 = FACE_BOUND ( 'NONE', #61, .T. ) ;
#175 = CARTESIAN_POINT ( 'NONE',  ( -23.50000000000000000, 0.9374999999999998890, 0.9374999999999998890 ) ) ;
#176 = CARTESIAN_POINT ( 'NONE',  ( 23.50000000000000000, -1.000000000000000000, -1.000000000000000000 ) ) ;
#177 = DIRECTION ( 'NONE',  ( 0.000000000000000000, 0.000000000000000000, 1.000000000000000000 ) ) ;
#178 = AXIS2_PLACEMENT_3D ( 'NONE', #261, #128, #284 ) ;
#179 = DIRECTION ( 'NONE',  ( 0.000000000000000000, -0.000000000000000000, -1.000000000000000000 ) ) ;
#180 = CARTESIAN_POINT ( 'NONE',  ( 23.50000000000000000, -1.000000000000000000, 0.9999999999999998890 ) ) ;
#181 = PLANE ( 'NONE',  #40 ) ;
#182 = PRODUCT_DEFINITION_FORMATION_WITH_SPECIFIED_SOURCE ( 'ANY', '', #145, .NOT_KNOWN. ) ;
#183 = VERTEX_POINT ( 'NONE', #46 ) ;
#184 = DIRECTION ( 'NONE',  ( -1.000000000000000000, -0.000000000000000000, -0.000000000000000000 ) ) ;
#185 = UNCERTAINTY_MEASURE_WITH_UNIT (LENGTH_MEASURE( 1.000000000000000082E-05 ), #91, 'distance_accuracy_value', 'NONE');
#186 = ORIENTED_EDGE ( 'NONE', *, *, #42, .F. ) ;
#187 = AXIS2_PLACEMENT_3D ( 'NONE', #205, #199, #255 ) ;
#188 = ORIENTED_EDGE ( 'NONE', *, *, #47, .F. ) ;
#189 = DIRECTION ( 'NONE',  ( 0.000000000000000000, 1.000000000000000000, 0.000000000000000000 ) ) ;
#190 = ORIENTED_EDGE ( 'NONE', *, *, #254, .T. ) ;
#191 = LINE ( 'NONE', #85, #241 ) ;
#192 = ORIENTED_EDGE ( 'NONE', *, *, #237, .T. ) ;
#193 = VECTOR ( 'NONE', #56, 39.37007874015748143 ) ;
#194 = ADVANCED_FACE ( 'NONE', ( #234 ), #257, .F. ) ;
#195 = VERTEX_POINT ( 'NONE', #159 ) ;
#196 =( LENGTH_UNIT ( ) NAMED_UNIT ( * ) SI_UNIT ( $, .METRE. ) );
#197 = ORIENTED_EDGE ( 'NONE', *, *, #109, .T. ) ;
#198 = CARTESIAN_POINT ( 'NONE',  ( 0.000000000000000000, 0.000000000000000000, 0.000000000000000000 ) ) ;
#199 = DIRECTION ( 'NONE',  ( -0.000000000000000000, 1.000000000000000000, 0.000000000000000000 ) ) ;
#200 = FACE_OUTER_BOUND ( 'NONE', #81, .T. ) ;
#201 = CARTESIAN_POINT ( 'NONE',  ( -23.50000000000000000, 0.9999999999999998890, -1.000000000000000000 ) ) ;
#202 = CARTESIAN_POINT ( 'NONE',  ( 23.50000000000000000, 0.9999999999999998890, -1.000000000000000000 ) ) ;
#203 = AXIS2_PLACEMENT_3D ( 'NONE', #71, #127, #179 ) ;
#204 = EDGE_CURVE ( 'NONE', #28, #63, #18, .T. ) ;
#205 = CARTESIAN_POINT ( 'NONE',  ( 23.50000000000000000, -0.9375000000000000000, 0.000000000000000000 ) ) ;
#206 = LINE ( 'NONE', #313, #120 ) ;
#207 = ADVANCED_FACE ( 'NONE', ( #49 ), #156, .F. ) ;
#208 = PLANE ( 'NONE',  #322 ) ;
#209 = VECTOR ( 'NONE', #136, 39.37007874015748143 ) ;
#210 = VECTOR ( 'NONE', #5, 39.37007874015748143 ) ;
#211 = ORIENTED_EDGE ( 'NONE', *, *, #312, .T. ) ;
#212 = DIRECTION ( 'NONE',  ( -0.000000000000000000, -1.000000000000000000, -0.000000000000000000 ) ) ;
#213 = MANIFOLD_SOLID_BREP ( 'Extrude-Thin1', #35 ) ;
#214 = LINE ( 'NONE', #217, #209 ) ;
#215 = ORIENTED_EDGE ( 'NONE', *, *, #157, .F. ) ;
#216 = VECTOR ( 'NONE', #328, 39.37007874015748143 ) ;
#217 = CARTESIAN_POINT ( 'NONE',  ( 23.50000000000000000, 0.9374999999999998890, 0.000000000000000000 ) ) ;
#218 = ORIENTED_EDGE ( 'NONE', *, *, #14, .F. ) ;
#219 = VERTEX_POINT ( 'NONE', #343 ) ;
#220 = VERTEX_POINT ( 'NONE', #103 ) ;
#221 = VECTOR ( 'NONE', #94, 39.37007874015748143 ) ;
#222 = ORIENTED_EDGE ( 'NONE', *, *, #47, .T. ) ;
#223 = SURFACE_STYLE_USAGE ( .BOTH. , #272 ) ;
#224 = PLANE ( 'NONE',  #60 ) ;
#225 = UNCERTAINTY_MEASURE_WITH_UNIT (LENGTH_MEASURE( 1.000000000000000082E-05 ), #305, 'distance_accuracy_value', 'NONE');
#226 = LINE ( 'NONE', #299, #17 ) ;
#227 = PLANE ( 'NONE',  #203 ) ;
#228 = CARTESIAN_POINT ( 'NONE',  ( 23.50000000000000000, -0.9375000000000000000, -0.9375000000000000000 ) ) ;
#229 = ADVANCED_FACE ( 'NONE', ( #236 ), #285, .F. ) ;
#230 = DIRECTION ( 'NONE',  ( 0.000000000000000000, 0.000000000000000000, 1.000000000000000000 ) ) ;
#231 = VECTOR ( 'NONE', #151, 39.37007874015748143 ) ;
#232 = SURFACE_STYLE_FILL_AREA ( #310 ) ;
#233 = DIRECTION ( 'NONE',  ( 0.000000000000000000, 0.000000000000000000, -1.000000000000000000 ) ) ;
#234 = FACE_OUTER_BOUND ( 'NONE', #269, .T. ) ;
#235 = LINE ( 'NONE', #342, #294 ) ;
#236 = FACE_OUTER_BOUND ( 'NONE', #244, .T. ) ;
#237 = EDGE_CURVE ( 'NONE', #265, #119, #235, .T. ) ;
#238 = CARTESIAN_POINT ( 'NONE',  ( -23.50000000000000000, -0.9375000000000000000, 0.000000000000000000 ) ) ;
#239 = ORIENTED_EDGE ( 'NONE', *, *, #4, .F. ) ;
#240 = ORIENTED_EDGE ( 'NONE', *, *, #99, .T. ) ;
#241 = VECTOR ( 'NONE', #345, 39.37007874015748143 ) ;
#242 = FACE_OUTER_BOUND ( 'NONE', #248, .T. ) ;
#243 = PRODUCT_DEFINITION_SHAPE ( 'NONE', 'NONE',  #170 ) ;
#244 = EDGE_LOOP ( 'NONE', ( #297, #186, #218, #240 ) ) ;
#245 = PRODUCT_DEFINITION_CONTEXT ( 'detailed design', #24, 'design' ) ;
#246 = EDGE_LOOP ( 'NONE', ( #21, #134, #29, #25 ) ) ;
#247 = ORIENTED_EDGE ( 'NONE', *, *, #341, .T. ) ;
#248 = EDGE_LOOP ( 'NONE', ( #50, #140, #293, #247 ) ) ;
#249 = CARTESIAN_POINT ( 'NONE',  ( 23.50000000000000000, 0.9999999999999998890, -1.000000000000000000 ) ) ;
#250 = DIRECTION ( 'NONE',  ( 0.000000000000000000, 0.000000000000000000, 1.000000000000000000 ) ) ;
#251 = STYLED_ITEM ( 'NONE', ( #148 ), #55 ) ;
#252 = DIRECTION ( 'NONE',  ( 0.000000000000000000, 0.000000000000000000, 1.000000000000000000 ) ) ;
#253 =( NAMED_UNIT ( * ) SI_UNIT ( $, .STERADIAN. ) SOLID_ANGLE_UNIT ( ) );
#254 = EDGE_CURVE ( 'NONE', #195, #63, #286, .T. ) ;
#255 = DIRECTION ( 'NONE',  ( 0.000000000000000000, -0.000000000000000000, 1.000000000000000000 ) ) ;
#256 =( NAMED_UNIT ( * ) PLANE_ANGLE_UNIT ( ) SI_UNIT ( $, .RADIAN. ) );
#257 = PLANE ( 'NONE',  #274 ) ;
#258 = CARTESIAN_POINT ( 'NONE',  ( 23.50000000000000000, -1.000000000000000000, -1.000000000000000000 ) ) ;
#259 =( NAMED_UNIT ( * ) SI_UNIT ( $, .STERADIAN. ) SOLID_ANGLE_UNIT ( ) );
#260 = EDGE_CURVE ( 'NONE', #339, #162, #206, .T. ) ;
#261 = CARTESIAN_POINT ( 'NONE',  ( 23.50000000000000000, -1.000000000000000000, 0.9999999999999998890 ) ) ;
#262 = MECHANICAL_DESIGN_GEOMETRIC_PRESENTATION_REPRESENTATION (  '', ( #316 ), #45 ) ;
#263 = ORIENTED_EDGE ( 'NONE', *, *, #204, .T. ) ;
#264 = ADVANCED_FACE ( 'NONE', ( #72 ), #181, .T. ) ;
#265 = VERTEX_POINT ( 'NONE', #288 ) ;
#266 = LINE ( 'NONE', #59, #129 ) ;
#267 = EDGE_LOOP ( 'NONE', ( #6, #271, #164, #321 ) ) ;
#268 = EDGE_CURVE ( 'NONE', #63, #183, #167, .T. ) ;
#269 = EDGE_LOOP ( 'NONE', ( #192, #32, #291, #57 ) ) ;
#270 = CARTESIAN_POINT ( 'NONE',  ( 23.50000000000000000, -1.000000000000000000, -1.000000000000000000 ) ) ;
#271 = ORIENTED_EDGE ( 'NONE', *, *, #142, .F. ) ;
#272 = SURFACE_SIDE_STYLE ('',( #296 ) ) ;
#273 = ORIENTED_EDGE ( 'NONE', *, *, #157, .T. ) ;
#274 = AXIS2_PLACEMENT_3D ( 'NONE', #107, #233, #337 ) ;
#275 = LINE ( 'NONE', #249, #113 ) ;
#276 = DIRECTION ( 'NONE',  ( -1.000000000000000000, -0.000000000000000000, -0.000000000000000000 ) ) ;
#277 = LENGTH_MEASURE_WITH_UNIT ( LENGTH_MEASURE( 0.02539999999999999897 ), #196 );
#278 = LINE ( 'NONE', #39, #301 ) ;
#279 = EDGE_CURVE ( 'NONE', #144, #119, #191, .T. ) ;
#280 = LINE ( 'NONE', #180, #125 ) ;
#281 = CARTESIAN_POINT ( 'NONE',  ( 23.50000000000000000, 0.9374999999999998890, 0.9374999999999998890 ) ) ;
#282 = CARTESIAN_POINT ( 'NONE',  ( 23.50000000000000000, 0.000000000000000000, -0.9375000000000000000 ) ) ;
#283 = AXIS2_PLACEMENT_3D ( 'NONE', #198, #177, #33 ) ;
#284 = DIRECTION ( 'NONE',  ( 0.000000000000000000, -0.000000000000000000, 1.000000000000000000 ) ) ;
#285 = PLANE ( 'NONE',  #143 ) ;
#286 = LINE ( 'NONE', #309, #340 ) ;
#287 = EDGE_CURVE ( 'NONE', #119, #121, #266, .T. ) ;
#288 = CARTESIAN_POINT ( 'NONE',  ( -23.50000000000000000, 0.9999999999999998890, 0.9999999999999998890 ) ) ;
#289 = ORIENTED_EDGE ( 'NONE', *, *, #290, .F. ) ;
#290 = EDGE_CURVE ( 'NONE', #106, #28, #26, .T. ) ;
#291 = ORIENTED_EDGE ( 'NONE', *, *, #69, .F. ) ;
#292 = DIRECTION ( 'NONE',  ( 0.000000000000000000, 0.000000000000000000, -1.000000000000000000 ) ) ;
#293 = ORIENTED_EDGE ( 'NONE', *, *, #69, .T. ) ;
#294 = VECTOR ( 'NONE', #212, 39.37007874015748143 ) ;
#295 = ORIENTED_EDGE ( 'NONE', *, *, #268, .T. ) ;
#296 = SURFACE_STYLE_FILL_AREA ( #65 ) ;
#297 = ORIENTED_EDGE ( 'NONE', *, *, #153, .T. ) ;
#298 = EDGE_CURVE ( 'NONE', #195, #220, #111, .T. ) ;
#299 = CARTESIAN_POINT ( 'NONE',  ( -23.50000000000000000, 0.9374999999999998890, 0.000000000000000000 ) ) ;
#300 =( LENGTH_UNIT ( ) NAMED_UNIT ( * ) SI_UNIT ( $, .METRE. ) );
#301 = VECTOR ( 'NONE', #252, 39.37007874015748143 ) ;
#302 = LINE ( 'NONE', #176, #132 ) ;
#303 = APPLICATION_PROTOCOL_DEFINITION ( 'draft international standard', 'automotive_design', 1998, #344 ) ;
#304 = CARTESIAN_POINT ( 'NONE',  ( 23.50000000000000000, 0.9999999999999998890, 0.9999999999999998890 ) ) ;
#305 =( CONVERSION_BASED_UNIT ( 'INCH', #277 ) LENGTH_UNIT ( ) NAMED_UNIT ( #105 ) );
#306 = LINE ( 'NONE', #147, #335 ) ;
#307 = AXIS2_PLACEMENT_3D ( 'NONE', #1, #325, #292 ) ;
#308 = DIRECTION ( 'NONE',  ( 0.000000000000000000, 1.000000000000000000, 0.000000000000000000 ) ) ;
#309 = CARTESIAN_POINT ( 'NONE',  ( 23.50000000000000000, -0.9375000000000000000, 0.9374999999999998890 ) ) ;
#310 = FILL_AREA_STYLE ('',( #76 ) ) ;
#311 = DIRECTION ( 'NONE',  ( 1.000000000000000000, 0.000000000000000000, -0.000000000000000000 ) ) ;
#312 = EDGE_CURVE ( 'NONE', #219, #106, #214, .T. ) ;
#313 = CARTESIAN_POINT ( 'NONE',  ( 23.50000000000000000, -1.000000000000000000, -1.000000000000000000 ) ) ;
#314 = CARTESIAN_POINT ( 'NONE',  ( 23.50000000000000000, 0.9999999999999998890, 0.9999999999999998890 ) ) ;
#315 = CARTESIAN_POINT ( 'NONE',  ( -23.50000000000000000, -1.000000000000000000, -1.000000000000000000 ) ) ;
#316 = STYLED_ITEM ( 'NONE', ( #19 ), #213 ) ;
#317 = ORIENTED_EDGE ( 'NONE', *, *, #109, .F. ) ;
#318 = ORIENTED_EDGE ( 'NONE', *, *, #298, .T. ) ;
#319 = PLANE ( 'NONE',  #307 ) ;
#320 = CARTESIAN_POINT ( 'NONE',  ( -23.50000000000000000, 0.000000000000000000, -0.9375000000000000000 ) ) ;
#321 = ORIENTED_EDGE ( 'NONE', *, *, #279, .T. ) ;
#322 = AXIS2_PLACEMENT_3D ( 'NONE', #258, #130, #311 ) ;
#323 = LENGTH_MEASURE_WITH_UNIT ( LENGTH_MEASURE( 0.02539999999999999897 ), #300 );
#324 = EDGE_CURVE ( 'NONE', #121, #112, #92, .T. ) ;
#325 = DIRECTION ( 'NONE',  ( 1.000000000000000000, 0.000000000000000000, 0.000000000000000000 ) ) ;
#326 = ORIENTED_EDGE ( 'NONE', *, *, #254, .F. ) ;
#327 = FILL_AREA_STYLE_COLOUR ( '', #173 ) ;
#328 = DIRECTION ( 'NONE',  ( -1.000000000000000000, -0.000000000000000000, -0.000000000000000000 ) ) ;
#329 = DIRECTION ( 'NONE',  ( 0.000000000000000000, 0.000000000000000000, -1.000000000000000000 ) ) ;
#330 = VECTOR ( 'NONE', #118, 39.37007874015748143 ) ;
#331 = ADVANCED_FACE ( 'NONE', ( #242, #23 ), #319, .T. ) ;
#332 = CARTESIAN_POINT ( 'NONE',  ( 23.50000000000000000, 0.9999999999999998890, 0.9999999999999998890 ) ) ;
#333 = DIRECTION ( 'NONE',  ( -1.000000000000000000, -0.000000000000000000, -0.000000000000000000 ) ) ;
#334 = DIRECTION ( 'NONE',  ( -1.000000000000000000, 0.000000000000000000, -0.000000000000000000 ) ) ;
#335 = VECTOR ( 'NONE', #308, 39.37007874015748143 ) ;
#336 = LENGTH_MEASURE_WITH_UNIT ( LENGTH_MEASURE( 0.02539999999999999897 ), #104 );
#337 = DIRECTION ( 'NONE',  ( -1.000000000000000000, 0.000000000000000000, -0.000000000000000000 ) ) ;
#338 = DIRECTION ( 'NONE',  ( 0.000000000000000000, -1.000000000000000000, 0.000000000000000000 ) ) ;
#339 = VERTEX_POINT ( 'NONE', #270 ) ;
#340 = VECTOR ( 'NONE', #184, 39.37007874015748143 ) ;
#341 = EDGE_CURVE ( 'NONE', #144, #339, #31, .T. ) ;
#342 = CARTESIAN_POINT ( 'NONE',  ( -23.50000000000000000, -1.000000000000000000, 0.9999999999999998890 ) ) ;
#343 = CARTESIAN_POINT ( 'NONE',  ( 23.50000000000000000, 0.9374999999999998890, -0.9375000000000000000 ) ) ;
#344 = APPLICATION_CONTEXT ( 'automotive_design' ) ;
#345 = DIRECTION ( 'NONE',  ( -1.000000000000000000, -0.000000000000000000, -0.000000000000000000 ) ) ;
#346 =( GEOMETRIC_REPRESENTATION_CONTEXT ( 3 ) GLOBAL_UNCERTAINTY_ASSIGNED_CONTEXT ( ( #185 ) ) GLOBAL_UNIT_ASSIGNED_CONTEXT ( ( #91, #10, #253 ) ) REPRESENTATION_CONTEXT ( 'NONE', 'WORKASPACE' ) );
#347 = LINE ( 'NONE', #320, #221 ) ;
ENDSEC;
END-ISO-10303-21;
