ISO-10303-21;
HEADER;
FILE_DESCRIPTION (( 'STEP AP214' ),
    '1' );
FILE_NAME ('WCP-0934 Rev1.step',
    '2023-11-16T21:59:17',
    ( '' ),
    ( '' ),
    'SwSTEP 2.0',
    'SolidWorks 2022',
    '' );
FILE_SCHEMA (( 'AUTOMOTIVE_DESIGN' ));
ENDSEC;

DATA;
#1 = CARTESIAN_POINT ( 'NONE',  ( -23.50000000000000000, 0.000000000000000000, -0.4375000000000000000 ) ) ;
#2 = CARTESIAN_POINT ( 'NONE',  ( 23.50000000000000000, 0.000000000000000000, 0.000000000000000000 ) ) ;
#3 = ADVANCED_FACE ( 'NONE', ( #337 ), #336, .F. ) ;
#4 = DIRECTION ( 'NONE',  ( 0.000000000000000000, -0.000000000000000000, 1.000000000000000000 ) ) ;
#5 = PRODUCT_DEFINITION_CONTEXT ( 'detailed design', #248, 'design' ) ;
#6 = AXIS2_PLACEMENT_3D ( 'NONE', #164, #239, #4 ) ;
#7 = DIRECTION ( 'NONE',  ( 0.000000000000000000, 0.000000000000000000, -1.000000000000000000 ) ) ;
#8 = STYLED_ITEM ( 'NONE', ( #14 ), #346 ) ;
#9 = ORIENTED_EDGE ( 'NONE', *, *, #181, .F. ) ;
#10 = EDGE_CURVE ( 'NONE', #306, #261, #291, .T. ) ;
#11 = DIRECTION ( 'NONE',  ( -0.000000000000000000, -1.000000000000000000, -0.000000000000000000 ) ) ;
#12 = CARTESIAN_POINT ( 'NONE',  ( -23.50000000000000000, 0.5000000000000000000, -0.5000000000000000000 ) ) ;
#13 = ORIENTED_EDGE ( 'NONE', *, *, #181, .T. ) ;
#14 = PRESENTATION_STYLE_ASSIGNMENT (( #300 ) ) ;
#15 = ORIENTED_EDGE ( 'NONE', *, *, #24, .T. ) ;
#16 = PLANE ( 'NONE',  #298 ) ;
#17 = LINE ( 'NONE', #249, #20 ) ;
#18 = ORIENTED_EDGE ( 'NONE', *, *, #24, .F. ) ;
#19 = EDGE_CURVE ( 'NONE', #73, #96, #315, .T. ) ;
#20 = VECTOR ( 'NONE', #127, 39.37007874015748143 ) ;
#21 = ORIENTED_EDGE ( 'NONE', *, *, #113, .F. ) ;
#22 = PLANE ( 'NONE',  #277 ) ;
#23 = ORIENTED_EDGE ( 'NONE', *, *, #305, .T. ) ;
#24 = EDGE_CURVE ( 'NONE', #198, #177, #160, .T. ) ;
#25 = ORIENTED_EDGE ( 'NONE', *, *, #206, .T. ) ;
#26 = DIRECTION ( 'NONE',  ( 0.000000000000000000, -1.000000000000000000, 0.000000000000000000 ) ) ;
#27 = VECTOR ( 'NONE', #236, 39.37007874015748143 ) ;
#28 = DIRECTION ( 'NONE',  ( 1.000000000000000000, 0.000000000000000000, -0.000000000000000000 ) ) ;
#29 =( GEOMETRIC_REPRESENTATION_CONTEXT ( 3 ) GLOBAL_UNCERTAINTY_ASSIGNED_CONTEXT ( ( #281 ) ) GLOBAL_UNIT_ASSIGNED_CONTEXT ( ( #244, #69, #167 ) ) REPRESENTATION_CONTEXT ( 'NONE', 'WORKASPACE' ) );
#30 = ADVANCED_FACE ( 'NONE', ( #234 ), #288, .F. ) ;
#31 = DIRECTION ( 'NONE',  ( -1.000000000000000000, -0.000000000000000000, -0.000000000000000000 ) ) ;
#32 = AXIS2_PLACEMENT_3D ( 'NONE', #2, #270, #161 ) ;
#33 = ADVANCED_FACE ( 'NONE', ( #339 ), #22, .T. ) ;
#34 = LINE ( 'NONE', #66, #74 ) ;
#35 = CARTESIAN_POINT ( 'NONE',  ( 23.50000000000000000, 0.5000000000000000000, 0.5000000000000000000 ) ) ;
#36 = CARTESIAN_POINT ( 'NONE',  ( -23.50000000000000000, 0.4375000000000000000, -0.4375000000000000000 ) ) ;
#37 = STYLED_ITEM ( 'NONE', ( #163 ), #241 ) ;
#38 = EDGE_CURVE ( 'NONE', #73, #50, #208, .T. ) ;
#39 = DIRECTION ( 'NONE',  ( 0.000000000000000000, -1.000000000000000000, 0.000000000000000000 ) ) ;
#40 = VECTOR ( 'NONE', #132, 39.37007874015748143 ) ;
#41 = ORIENTED_EDGE ( 'NONE', *, *, #82, .T. ) ;
#42 = VERTEX_POINT ( 'NONE', #317 ) ;
#43 = DIRECTION ( 'NONE',  ( 0.000000000000000000, 0.000000000000000000, 1.000000000000000000 ) ) ;
#44 = EDGE_LOOP ( 'NONE', ( #276, #283, #278, #83 ) ) ;
#45 = ADVANCED_FACE ( 'NONE', ( #157 ), #205, .T. ) ;
#46 = ORIENTED_EDGE ( 'NONE', *, *, #93, .T. ) ;
#47 = VECTOR ( 'NONE', #172, 39.37007874015748143 ) ;
#48 = DIRECTION ( 'NONE',  ( 0.000000000000000000, 0.000000000000000000, 1.000000000000000000 ) ) ;
#49 = LINE ( 'NONE', #77, #176 ) ;
#50 = VERTEX_POINT ( 'NONE', #106 ) ;
#51 = DIRECTION ( 'NONE',  ( 0.000000000000000000, 0.000000000000000000, 1.000000000000000000 ) ) ;
#52 = CARTESIAN_POINT ( 'NONE',  ( 23.50000000000000000, 0.5000000000000000000, -0.5000000000000000000 ) ) ;
#53 = VERTEX_POINT ( 'NONE', #207 ) ;
#54 = SURFACE_STYLE_USAGE ( .BOTH. , #322 ) ;
#55 = LINE ( 'NONE', #1, #238 ) ;
#56 = LINE ( 'NONE', #190, #344 ) ;
#57 = EDGE_CURVE ( 'NONE', #335, #71, #180, .T. ) ;
#58 = CARTESIAN_POINT ( 'NONE',  ( 23.50000000000000000, 0.5000000000000000000, 0.5000000000000000000 ) ) ;
#59 = UNCERTAINTY_MEASURE_WITH_UNIT (LENGTH_MEASURE( 1.000000000000000082E-05 ), #188, 'distance_accuracy_value', 'NONE');
#60 = PRESENTATION_LAYER_ASSIGNMENT (  '', '', ( #8 ) ) ;
#61 =( LENGTH_UNIT ( ) NAMED_UNIT ( * ) SI_UNIT ( $, .METRE. ) );
#62 = LINE ( 'NONE', #58, #81 ) ;
#63 = VECTOR ( 'NONE', #201, 39.37007874015748143 ) ;
#64 = CARTESIAN_POINT ( 'NONE',  ( 23.50000000000000000, -0.5000000000000000000, 0.5000000000000000000 ) ) ;
#65 = ORIENTED_EDGE ( 'NONE', *, *, #285, .T. ) ;
#66 = CARTESIAN_POINT ( 'NONE',  ( 23.50000000000000000, -0.5000000000000000000, 0.5000000000000000000 ) ) ;
#67 = ORIENTED_EDGE ( 'NONE', *, *, #187, .T. ) ;
#68 = ORIENTED_EDGE ( 'NONE', *, *, #57, .F. ) ;
#69 =( NAMED_UNIT ( * ) PLANE_ANGLE_UNIT ( ) SI_UNIT ( $, .RADIAN. ) );
#70 = ORIENTED_EDGE ( 'NONE', *, *, #10, .F. ) ;
#71 = VERTEX_POINT ( 'NONE', #260 ) ;
#72 = VECTOR ( 'NONE', #75, 39.37007874015748143 ) ;
#73 = VERTEX_POINT ( 'NONE', #259 ) ;
#74 = VECTOR ( 'NONE', #11, 39.37007874015748143 ) ;
#75 = DIRECTION ( 'NONE',  ( -1.000000000000000000, -0.000000000000000000, -0.000000000000000000 ) ) ;
#76 = DIRECTION ( 'NONE',  ( 0.000000000000000000, 0.000000000000000000, 1.000000000000000000 ) ) ;
#77 = CARTESIAN_POINT ( 'NONE',  ( 23.50000000000000000, 0.4375000000000000000, 0.000000000000000000 ) ) ;
#78 = PRODUCT ( 'WCP-0934 Rev1', 'WCP-0934 Rev1', '', ( #338 ) ) ;
#79 = DIRECTION ( 'NONE',  ( 0.000000000000000000, 0.000000000000000000, 1.000000000000000000 ) ) ;
#80 = FACE_OUTER_BOUND ( 'NONE', #146, .T. ) ;
#81 = VECTOR ( 'NONE', #324, 39.37007874015748143 ) ;
#82 = EDGE_CURVE ( 'NONE', #96, #202, #49, .T. ) ;
#83 = ORIENTED_EDGE ( 'NONE', *, *, #212, .T. ) ;
#84 = FACE_OUTER_BOUND ( 'NONE', #44, .T. ) ;
#85 = VECTOR ( 'NONE', #51, 39.37007874015748143 ) ;
#86 = LENGTH_MEASURE_WITH_UNIT ( LENGTH_MEASURE( 0.02539999999999999897 ), #139 );
#87 = DIMENSIONAL_EXPONENTS ( 1.000000000000000000, 0.000000000000000000, 0.000000000000000000, 0.000000000000000000, 0.000000000000000000, 0.000000000000000000, 0.000000000000000000 ) ;
#88 = DIRECTION ( 'NONE',  ( -1.000000000000000000, -0.000000000000000000, -0.000000000000000000 ) ) ;
#89 = FILL_AREA_STYLE_COLOUR ( '', #138 ) ;
#90 = CARTESIAN_POINT ( 'NONE',  ( 23.50000000000000000, -0.5000000000000000000, 0.5000000000000000000 ) ) ;
#91 = MECHANICAL_DESIGN_GEOMETRIC_PRESENTATION_REPRESENTATION (  '', ( #8 ), #29 ) ;
#92 = ORIENTED_EDGE ( 'NONE', *, *, #269, .T. ) ;
#93 = EDGE_CURVE ( 'NONE', #124, #261, #182, .T. ) ;
#94 = AXIS2_PLACEMENT_3D ( 'NONE', #90, #165, #185 ) ;
#95 = LENGTH_MEASURE_WITH_UNIT ( LENGTH_MEASURE( 0.02539999999999999897 ), #97 );
#96 = VERTEX_POINT ( 'NONE', #290 ) ;
#97 =( LENGTH_UNIT ( ) NAMED_UNIT ( * ) SI_UNIT ( $, .METRE. ) );
#98 = ORIENTED_EDGE ( 'NONE', *, *, #326, .T. ) ;
#99 = ORIENTED_EDGE ( 'NONE', *, *, #269, .F. ) ;
#100 = LINE ( 'NONE', #64, #63 ) ;
#101 = ORIENTED_EDGE ( 'NONE', *, *, #38, .F. ) ;
#102 = SHAPE_DEFINITION_REPRESENTATION ( #289, #346 ) ;
#103 = ORIENTED_EDGE ( 'NONE', *, *, #329, .F. ) ;
#104 = AXIS2_PLACEMENT_3D ( 'NONE', #292, #107, #286 ) ;
#105 = DIRECTION ( 'NONE',  ( 0.000000000000000000, -1.000000000000000000, 0.000000000000000000 ) ) ;
#106 = CARTESIAN_POINT ( 'NONE',  ( -23.50000000000000000, -0.4375000000000000000, -0.4375000000000000000 ) ) ;
#107 = DIRECTION ( 'NONE',  ( 0.000000000000000000, 0.000000000000000000, -1.000000000000000000 ) ) ;
#108 = CARTESIAN_POINT ( 'NONE',  ( 23.50000000000000000, 0.5000000000000000000, -0.5000000000000000000 ) ) ;
#109 = ORIENTED_EDGE ( 'NONE', *, *, #312, .T. ) ;
#110 = DIRECTION ( 'NONE',  ( 0.000000000000000000, 0.000000000000000000, -1.000000000000000000 ) ) ;
#111 = VECTOR ( 'NONE', #88, 39.37007874015748143 ) ;
#112 = FACE_BOUND ( 'NONE', #122, .T. ) ;
#113 = EDGE_CURVE ( 'NONE', #202, #335, #341, .T. ) ;
#114 = DIMENSIONAL_EXPONENTS ( 1.000000000000000000, 0.000000000000000000, 0.000000000000000000, 0.000000000000000000, 0.000000000000000000, 0.000000000000000000, 0.000000000000000000 ) ;
#115 = PLANE ( 'NONE',  #94 ) ;
#116 = DIRECTION ( 'NONE',  ( -1.000000000000000000, -0.000000000000000000, -0.000000000000000000 ) ) ;
#117 = DIRECTION ( 'NONE',  ( 0.000000000000000000, 0.000000000000000000, -1.000000000000000000 ) ) ;
#118 = VECTOR ( 'NONE', #26, 39.37007874015748143 ) ;
#119 =( CONVERSION_BASED_UNIT ( 'INCH', #95 ) LENGTH_UNIT ( ) NAMED_UNIT ( #87 ) );
#120 = CARTESIAN_POINT ( 'NONE',  ( -23.50000000000000000, 0.5000000000000000000, 0.5000000000000000000 ) ) ;
#121 = LINE ( 'NONE', #220, #219 ) ;
#122 = EDGE_LOOP ( 'NONE', ( #129, #327, #247, #21 ) ) ;
#123 = CARTESIAN_POINT ( 'NONE',  ( 23.50000000000000000, -0.4375000000000000000, 0.4375000000000000000 ) ) ;
#124 = VERTEX_POINT ( 'NONE', #108 ) ;
#125 = VERTEX_POINT ( 'NONE', #209 ) ;
#126 = FACE_OUTER_BOUND ( 'NONE', #128, .T. ) ;
#127 = DIRECTION ( 'NONE',  ( -1.000000000000000000, -0.000000000000000000, -0.000000000000000000 ) ) ;
#128 = EDGE_LOOP ( 'NONE', ( #280, #150, #226, #251 ) ) ;
#129 = ORIENTED_EDGE ( 'NONE', *, *, #82, .F. ) ;
#130 = CARTESIAN_POINT ( 'NONE',  ( -23.50000000000000000, 0.4375000000000000000, 0.000000000000000000 ) ) ;
#131 = CLOSED_SHELL ( 'NONE', ( #158, #218, #345, #3, #30, #233, #33, #45, #148, #134 ) ) ;
#132 = DIRECTION ( 'NONE',  ( 0.000000000000000000, 1.000000000000000000, 0.000000000000000000 ) ) ;
#133 = ORIENTED_EDGE ( 'NONE', *, *, #113, .T. ) ;
#134 = ADVANCED_FACE ( 'NONE', ( #80 ), #184, .T. ) ;
#135 = CARTESIAN_POINT ( 'NONE',  ( 23.50000000000000000, 0.000000000000000000, -0.4375000000000000000 ) ) ;
#136 = AXIS2_PLACEMENT_3D ( 'NONE', #179, #314, #154 ) ;
#137 = PLANE ( 'NONE',  #287 ) ;
#138 = COLOUR_RGB ( '',0.8666666666666666963, 0.9098039215686274384, 1.000000000000000000 ) ;
#139 =( LENGTH_UNIT ( ) NAMED_UNIT ( * ) SI_UNIT ( $, .METRE. ) );
#140 = COLOUR_RGB ( '',0.8666666666666666963, 0.9098039215686274384, 1.000000000000000000 ) ;
#141 = EDGE_CURVE ( 'NONE', #147, #42, #293, .T. ) ;
#142 =( NAMED_UNIT ( * ) PLANE_ANGLE_UNIT ( ) SI_UNIT ( $, .RADIAN. ) );
#143 = FACE_OUTER_BOUND ( 'NONE', #265, .T. ) ;
#144 = CARTESIAN_POINT ( 'NONE',  ( 23.50000000000000000, -0.5000000000000000000, 0.5000000000000000000 ) ) ;
#145 = LINE ( 'NONE', #245, #266 ) ;
#146 = EDGE_LOOP ( 'NONE', ( #333, #68, #65, #309 ) ) ;
#147 = VERTEX_POINT ( 'NONE', #35 ) ;
#148 = ADVANCED_FACE ( 'NONE', ( #237 ), #192, .T. ) ;
#149 = SURFACE_SIDE_STYLE ('',( #296 ) ) ;
#150 = ORIENTED_EDGE ( 'NONE', *, *, #93, .F. ) ;
#151 = EDGE_LOOP ( 'NONE', ( #308, #183, #133, #250 ) ) ;
#152 = ORIENTED_EDGE ( 'NONE', *, *, #203, .T. ) ;
#153 = VECTOR ( 'NONE', #116, 39.37007874015748143 ) ;
#154 = DIRECTION ( 'NONE',  ( 0.000000000000000000, -0.000000000000000000, -1.000000000000000000 ) ) ;
#155 = CARTESIAN_POINT ( 'NONE',  ( 23.50000000000000000, -0.4375000000000000000, 0.4375000000000000000 ) ) ;
#156 = APPLICATION_PROTOCOL_DEFINITION ( 'draft international standard', 'automotive_design', 1998, #248 ) ;
#157 = FACE_OUTER_BOUND ( 'NONE', #229, .T. ) ;
#158 = ADVANCED_FACE ( 'NONE', ( #143, #112 ), #216, .T. ) ;
#159 = CARTESIAN_POINT ( 'NONE',  ( 23.50000000000000000, 0.000000000000000000, 0.4375000000000000000 ) ) ;
#160 = LINE ( 'NONE', #130, #85 ) ;
#161 = DIRECTION ( 'NONE',  ( 0.000000000000000000, 0.000000000000000000, -1.000000000000000000 ) ) ;
#162 = DIMENSIONAL_EXPONENTS ( 1.000000000000000000, 0.000000000000000000, 0.000000000000000000, 0.000000000000000000, 0.000000000000000000, 0.000000000000000000, 0.000000000000000000 ) ;
#163 = PRESENTATION_STYLE_ASSIGNMENT (( #54 ) ) ;
#164 = CARTESIAN_POINT ( 'NONE',  ( 23.50000000000000000, -0.4375000000000000000, 0.000000000000000000 ) ) ;
#165 = DIRECTION ( 'NONE',  ( -0.000000000000000000, 1.000000000000000000, 0.000000000000000000 ) ) ;
#166 = VECTOR ( 'NONE', #193, 39.37007874015748143 ) ;
#167 =( NAMED_UNIT ( * ) SI_UNIT ( $, .STERADIAN. ) SOLID_ANGLE_UNIT ( ) );
#168 = LINE ( 'NONE', #275, #256 ) ;
#169 = EDGE_LOOP ( 'NONE', ( #303, #101, #173, #92 ) ) ;
#170 = EDGE_LOOP ( 'NONE', ( #67, #15, #109, #222 ) ) ;
#171 = APPLICATION_PROTOCOL_DEFINITION ( 'draft international standard', 'automotive_design', 1998, #321 ) ;
#172 = DIRECTION ( 'NONE',  ( -1.000000000000000000, -0.000000000000000000, -0.000000000000000000 ) ) ;
#173 = ORIENTED_EDGE ( 'NONE', *, *, #19, .T. ) ;
#174 = DIRECTION ( 'NONE',  ( 1.000000000000000000, 0.000000000000000000, -0.000000000000000000 ) ) ;
#175 = EDGE_LOOP ( 'NONE', ( #70, #316, #9, #195 ) ) ;
#176 = VECTOR ( 'NONE', #79, 39.37007874015748143 ) ;
#177 = VERTEX_POINT ( 'NONE', #267 ) ;
#178 = AXIS2_PLACEMENT_3D ( 'NONE', #313, #76, #257 ) ;
#179 = CARTESIAN_POINT ( 'NONE',  ( 23.50000000000000000, 0.4375000000000000000, 0.000000000000000000 ) ) ;
#180 = LINE ( 'NONE', #155, #325 ) ;
#181 = EDGE_CURVE ( 'NONE', #42, #53, #343, .T. ) ;
#182 = LINE ( 'NONE', #52, #27 ) ;
#183 = ORIENTED_EDGE ( 'NONE', *, *, #203, .F. ) ;
#184 = PLANE ( 'NONE',  #6 ) ;
#185 = DIRECTION ( 'NONE',  ( 0.000000000000000000, -0.000000000000000000, 1.000000000000000000 ) ) ;
#186 = AXIS2_PLACEMENT_3D ( 'NONE', #232, #105, #264 ) ;
#187 = EDGE_CURVE ( 'NONE', #50, #198, #55, .T. ) ;
#188 =( CONVERSION_BASED_UNIT ( 'INCH', #86 ) LENGTH_UNIT ( ) NAMED_UNIT ( #162 ) );
#189 = DIRECTION ( 'NONE',  ( 0.000000000000000000, 1.000000000000000000, 0.000000000000000000 ) ) ;
#190 = CARTESIAN_POINT ( 'NONE',  ( 23.50000000000000000, 0.4375000000000000000, 0.4375000000000000000 ) ) ;
#191 = FILL_AREA_STYLE ('',( #89 ) ) ;
#192 = PLANE ( 'NONE',  #301 ) ;
#193 = DIRECTION ( 'NONE',  ( 0.000000000000000000, 0.000000000000000000, -1.000000000000000000 ) ) ;
#194 = MECHANICAL_DESIGN_GEOMETRIC_PRESENTATION_REPRESENTATION (  '', ( #37 ), #221 ) ;
#195 = ORIENTED_EDGE ( 'NONE', *, *, #246, .F. ) ;
#196 = PRODUCT_DEFINITION ( 'UNKNOWN', '', #342, #5 ) ;
#197 = CARTESIAN_POINT ( 'NONE',  ( -23.50000000000000000, -0.5000000000000000000, -0.5000000000000000000 ) ) ;
#198 = VERTEX_POINT ( 'NONE', #36 ) ;
#199 = EDGE_LOOP ( 'NONE', ( #13, #225, #103, #328 ) ) ;
#200 = EDGE_LOOP ( 'NONE', ( #204, #284, #255, #46 ) ) ;
#201 = DIRECTION ( 'NONE',  ( 0.000000000000000000, 0.000000000000000000, -1.000000000000000000 ) ) ;
#202 = VERTEX_POINT ( 'NONE', #294 ) ;
#203 = EDGE_CURVE ( 'NONE', #202, #177, #56, .T. ) ;
#204 = ORIENTED_EDGE ( 'NONE', *, *, #246, .T. ) ;
#205 = PLANE ( 'NONE',  #136 ) ;
#206 = EDGE_CURVE ( 'NONE', #124, #147, #62, .T. ) ;
#207 = CARTESIAN_POINT ( 'NONE',  ( -23.50000000000000000, -0.5000000000000000000, 0.5000000000000000000 ) ) ;
#208 = LINE ( 'NONE', #310, #72 ) ;
#209 = CARTESIAN_POINT ( 'NONE',  ( 23.50000000000000000, -0.5000000000000000000, 0.5000000000000000000 ) ) ;
#210 = VECTOR ( 'NONE', #279, 39.37007874015748143 ) ;
#211 = FACE_OUTER_BOUND ( 'NONE', #175, .T. ) ;
#212 = EDGE_CURVE ( 'NONE', #125, #53, #295, .T. ) ;
#213 = FILL_AREA_STYLE_COLOUR ( '', #140 ) ;
#214 = SURFACE_STYLE_FILL_AREA ( #268 ) ;
#215 = FACE_BOUND ( 'NONE', #170, .T. ) ;
#216 = PLANE ( 'NONE',  #32 ) ;
#217 = DIRECTION ( 'NONE',  ( 0.000000000000000000, 0.000000000000000000, 1.000000000000000000 ) ) ;
#218 = ADVANCED_FACE ( 'NONE', ( #211, #215 ), #137, .F. ) ;
#219 = VECTOR ( 'NONE', #304, 39.37007874015748143 ) ;
#220 = CARTESIAN_POINT ( 'NONE',  ( 23.50000000000000000, -0.5000000000000000000, -0.5000000000000000000 ) ) ;
#221 =( GEOMETRIC_REPRESENTATION_CONTEXT ( 3 ) GLOBAL_UNCERTAINTY_ASSIGNED_CONTEXT ( ( #59 ) ) GLOBAL_UNIT_ASSIGNED_CONTEXT ( ( #188, #142, #224 ) ) REPRESENTATION_CONTEXT ( 'NONE', 'WORKASPACE' ) );
#222 = ORIENTED_EDGE ( 'NONE', *, *, #320, .T. ) ;
#223 =( NAMED_UNIT ( * ) SI_UNIT ( $, .STERADIAN. ) SOLID_ANGLE_UNIT ( ) );
#224 =( NAMED_UNIT ( * ) SI_UNIT ( $, .STERADIAN. ) SOLID_ANGLE_UNIT ( ) );
#225 = ORIENTED_EDGE ( 'NONE', *, *, #212, .F. ) ;
#226 = ORIENTED_EDGE ( 'NONE', *, *, #326, .F. ) ;
#227 = CARTESIAN_POINT ( 'NONE',  ( 23.50000000000000000, -0.5000000000000000000, -0.5000000000000000000 ) ) ;
#228 = CARTESIAN_POINT ( 'NONE',  ( 23.50000000000000000, -0.5000000000000000000, -0.5000000000000000000 ) ) ;
#229 = EDGE_LOOP ( 'NONE', ( #18, #99, #41, #152 ) ) ;
#230 = PRESENTATION_LAYER_ASSIGNMENT (  '', '', ( #37 ) ) ;
#231 = DIRECTION ( 'NONE',  ( 0.000000000000000000, 1.000000000000000000, 0.000000000000000000 ) ) ;
#232 = CARTESIAN_POINT ( 'NONE',  ( 23.50000000000000000, 0.5000000000000000000, 0.5000000000000000000 ) ) ;
#233 = ADVANCED_FACE ( 'NONE', ( #84 ), #115, .F. ) ;
#234 = FACE_OUTER_BOUND ( 'NONE', #199, .T. ) ;
#235 = CARTESIAN_POINT ( 'NONE',  ( -23.50000000000000000, -0.5000000000000000000, -0.5000000000000000000 ) ) ;
#236 = DIRECTION ( 'NONE',  ( -1.000000000000000000, -0.000000000000000000, -0.000000000000000000 ) ) ;
#237 = FACE_OUTER_BOUND ( 'NONE', #151, .T. ) ;
#238 = VECTOR ( 'NONE', #189, 39.37007874015748143 ) ;
#239 = DIRECTION ( 'NONE',  ( -0.000000000000000000, 1.000000000000000000, 0.000000000000000000 ) ) ;
#240 = DIRECTION ( 'NONE',  ( -1.000000000000000000, 0.000000000000000000, -0.000000000000000000 ) ) ;
#241 = MANIFOLD_SOLID_BREP ( 'Extrude-Thin1', #131 ) ;
#242 = DIRECTION ( 'NONE',  ( 1.000000000000000000, 0.000000000000000000, 0.000000000000000000 ) ) ;
#243 = CARTESIAN_POINT ( 'NONE',  ( 23.50000000000000000, -0.5000000000000000000, -0.5000000000000000000 ) ) ;
#244 =( CONVERSION_BASED_UNIT ( 'INCH', #307 ) LENGTH_UNIT ( ) NAMED_UNIT ( #114 ) );
#245 = CARTESIAN_POINT ( 'NONE',  ( -23.50000000000000000, -0.4375000000000000000, 0.000000000000000000 ) ) ;
#246 = EDGE_CURVE ( 'NONE', #261, #42, #282, .T. ) ;
#247 = ORIENTED_EDGE ( 'NONE', *, *, #285, .F. ) ;
#248 = APPLICATION_CONTEXT ( 'automotive_design' ) ;
#249 = CARTESIAN_POINT ( 'NONE',  ( 23.50000000000000000, 0.4375000000000000000, -0.4375000000000000000 ) ) ;
#250 = ORIENTED_EDGE ( 'NONE', *, *, #57, .T. ) ;
#251 = ORIENTED_EDGE ( 'NONE', *, *, #274, .T. ) ;
#252 = CARTESIAN_POINT ( 'NONE',  ( -23.50000000000000000, -0.5000000000000000000, 0.5000000000000000000 ) ) ;
#253 = ORIENTED_EDGE ( 'NONE', *, *, #329, .T. ) ;
#254 = UNCERTAINTY_MEASURE_WITH_UNIT (LENGTH_MEASURE( 1.000000000000000082E-05 ), #119, 'distance_accuracy_value', 'NONE');
#255 = ORIENTED_EDGE ( 'NONE', *, *, #206, .F. ) ;
#256 = VECTOR ( 'NONE', #39, 39.37007874015748143 ) ;
#257 = DIRECTION ( 'NONE',  ( 1.000000000000000000, 0.000000000000000000, 0.000000000000000000 ) ) ;
#258 = EDGE_CURVE ( 'NONE', #53, #306, #273, .T. ) ;
#259 = CARTESIAN_POINT ( 'NONE',  ( 23.50000000000000000, -0.4375000000000000000, -0.4375000000000000000 ) ) ;
#260 = CARTESIAN_POINT ( 'NONE',  ( -23.50000000000000000, -0.4375000000000000000, 0.4375000000000000000 ) ) ;
#261 = VERTEX_POINT ( 'NONE', #12 ) ;
#262 = DIRECTION ( 'NONE',  ( -1.000000000000000000, -0.000000000000000000, -0.000000000000000000 ) ) ;
#263 = VECTOR ( 'NONE', #231, 39.37007874015748143 ) ;
#264 = DIRECTION ( 'NONE',  ( 0.000000000000000000, -0.000000000000000000, -1.000000000000000000 ) ) ;
#265 = EDGE_LOOP ( 'NONE', ( #98, #25, #253, #23 ) ) ;
#266 = VECTOR ( 'NONE', #7, 39.37007874015748143 ) ;
#267 = CARTESIAN_POINT ( 'NONE',  ( -23.50000000000000000, 0.4375000000000000000, 0.4375000000000000000 ) ) ;
#268 = FILL_AREA_STYLE ('',( #213 ) ) ;
#269 = EDGE_CURVE ( 'NONE', #96, #198, #17, .T. ) ;
#270 = DIRECTION ( 'NONE',  ( 1.000000000000000000, 0.000000000000000000, 0.000000000000000000 ) ) ;
#271 = DIRECTION ( 'NONE',  ( -0.000000000000000000, -1.000000000000000000, -0.000000000000000000 ) ) ;
#272 = VECTOR ( 'NONE', #271, 39.37007874015748143 ) ;
#273 = LINE ( 'NONE', #252, #166 ) ;
#274 = EDGE_CURVE ( 'NONE', #332, #306, #331, .T. ) ;
#275 = CARTESIAN_POINT ( 'NONE',  ( -23.50000000000000000, 0.000000000000000000, 0.4375000000000000000 ) ) ;
#276 = ORIENTED_EDGE ( 'NONE', *, *, #258, .T. ) ;
#277 = AXIS2_PLACEMENT_3D ( 'NONE', #340, #48, #28 ) ;
#278 = ORIENTED_EDGE ( 'NONE', *, *, #305, .F. ) ;
#279 = DIRECTION ( 'NONE',  ( 0.000000000000000000, 0.000000000000000000, -1.000000000000000000 ) ) ;
#280 = ORIENTED_EDGE ( 'NONE', *, *, #10, .T. ) ;
#281 = UNCERTAINTY_MEASURE_WITH_UNIT (LENGTH_MEASURE( 1.000000000000000082E-05 ), #244, 'distance_accuracy_value', 'NONE');
#282 = LINE ( 'NONE', #120, #318 ) ;
#283 = ORIENTED_EDGE ( 'NONE', *, *, #274, .F. ) ;
#284 = ORIENTED_EDGE ( 'NONE', *, *, #141, .F. ) ;
#285 = EDGE_CURVE ( 'NONE', #335, #73, #334, .T. ) ;
#286 = DIRECTION ( 'NONE',  ( -1.000000000000000000, 0.000000000000000000, -0.000000000000000000 ) ) ;
#287 = AXIS2_PLACEMENT_3D ( 'NONE', #319, #242, #117 ) ;
#288 = PLANE ( 'NONE',  #104 ) ;
#289 = PRODUCT_DEFINITION_SHAPE ( 'NONE', 'NONE',  #196 ) ;
#290 = CARTESIAN_POINT ( 'NONE',  ( 23.50000000000000000, 0.4375000000000000000, -0.4375000000000000000 ) ) ;
#291 = LINE ( 'NONE', #235, #40 ) ;
#292 = CARTESIAN_POINT ( 'NONE',  ( 23.50000000000000000, -0.5000000000000000000, 0.5000000000000000000 ) ) ;
#293 = LINE ( 'NONE', #297, #111 ) ;
#294 = CARTESIAN_POINT ( 'NONE',  ( 23.50000000000000000, 0.4375000000000000000, 0.4375000000000000000 ) ) ;
#295 = LINE ( 'NONE', #144, #153 ) ;
#296 = SURFACE_STYLE_FILL_AREA ( #191 ) ;
#297 = CARTESIAN_POINT ( 'NONE',  ( 23.50000000000000000, 0.5000000000000000000, 0.5000000000000000000 ) ) ;
#298 = AXIS2_PLACEMENT_3D ( 'NONE', #227, #43, #174 ) ;
#299 = PRODUCT_RELATED_PRODUCT_CATEGORY ( 'part', '', ( #78 ) ) ;
#300 = SURFACE_STYLE_USAGE ( .BOTH. , #149 ) ;
#301 = AXIS2_PLACEMENT_3D ( 'NONE', #323, #110, #240 ) ;
#302 = CARTESIAN_POINT ( 'NONE',  ( 23.50000000000000000, -0.4375000000000000000, 0.000000000000000000 ) ) ;
#303 = ORIENTED_EDGE ( 'NONE', *, *, #187, .F. ) ;
#304 = DIRECTION ( 'NONE',  ( 0.000000000000000000, 1.000000000000000000, 0.000000000000000000 ) ) ;
#305 = EDGE_CURVE ( 'NONE', #125, #332, #100, .T. ) ;
#306 = VERTEX_POINT ( 'NONE', #197 ) ;
#307 = LENGTH_MEASURE_WITH_UNIT ( LENGTH_MEASURE( 0.02539999999999999897 ), #61 );
#308 = ORIENTED_EDGE ( 'NONE', *, *, #312, .F. ) ;
#309 = ORIENTED_EDGE ( 'NONE', *, *, #38, .T. ) ;
#310 = CARTESIAN_POINT ( 'NONE',  ( 23.50000000000000000, -0.4375000000000000000, -0.4375000000000000000 ) ) ;
#311 =( GEOMETRIC_REPRESENTATION_CONTEXT ( 3 ) GLOBAL_UNCERTAINTY_ASSIGNED_CONTEXT ( ( #254 ) ) GLOBAL_UNIT_ASSIGNED_CONTEXT ( ( #119, #330, #223 ) ) REPRESENTATION_CONTEXT ( 'NONE', 'WORKASPACE' ) );
#312 = EDGE_CURVE ( 'NONE', #177, #71, #168, .T. ) ;
#313 = CARTESIAN_POINT ( 'NONE',  ( 0.000000000000000000, 0.000000000000000000, 0.000000000000000000 ) ) ;
#314 = DIRECTION ( 'NONE',  ( 0.000000000000000000, -1.000000000000000000, 0.000000000000000000 ) ) ;
#315 = LINE ( 'NONE', #135, #263 ) ;
#316 = ORIENTED_EDGE ( 'NONE', *, *, #258, .F. ) ;
#317 = CARTESIAN_POINT ( 'NONE',  ( -23.50000000000000000, 0.5000000000000000000, 0.5000000000000000000 ) ) ;
#318 = VECTOR ( 'NONE', #217, 39.37007874015748143 ) ;
#319 = CARTESIAN_POINT ( 'NONE',  ( -23.50000000000000000, 0.000000000000000000, 0.000000000000000000 ) ) ;
#320 = EDGE_CURVE ( 'NONE', #71, #50, #145, .T. ) ;
#321 = APPLICATION_CONTEXT ( 'automotive_design' ) ;
#322 = SURFACE_SIDE_STYLE ('',( #214 ) ) ;
#323 = CARTESIAN_POINT ( 'NONE',  ( 23.50000000000000000, 0.000000000000000000, 0.4375000000000000000 ) ) ;
#324 = DIRECTION ( 'NONE',  ( 0.000000000000000000, 0.000000000000000000, 1.000000000000000000 ) ) ;
#325 = VECTOR ( 'NONE', #262, 39.37007874015748143 ) ;
#326 = EDGE_CURVE ( 'NONE', #332, #124, #121, .T. ) ;
#327 = ORIENTED_EDGE ( 'NONE', *, *, #19, .F. ) ;
#328 = ORIENTED_EDGE ( 'NONE', *, *, #141, .T. ) ;
#329 = EDGE_CURVE ( 'NONE', #147, #125, #34, .T. ) ;
#330 =( NAMED_UNIT ( * ) PLANE_ANGLE_UNIT ( ) SI_UNIT ( $, .RADIAN. ) );
#331 = LINE ( 'NONE', #228, #47 ) ;
#332 = VERTEX_POINT ( 'NONE', #243 ) ;
#333 = ORIENTED_EDGE ( 'NONE', *, *, #320, .F. ) ;
#334 = LINE ( 'NONE', #302, #210 ) ;
#335 = VERTEX_POINT ( 'NONE', #123 ) ;
#336 = PLANE ( 'NONE',  #186 ) ;
#337 = FACE_OUTER_BOUND ( 'NONE', #200, .T. ) ;
#338 = PRODUCT_CONTEXT ( 'NONE', #321, 'mechanical' ) ;
#339 = FACE_OUTER_BOUND ( 'NONE', #169, .T. ) ;
#340 = CARTESIAN_POINT ( 'NONE',  ( 23.50000000000000000, 0.000000000000000000, -0.4375000000000000000 ) ) ;
#341 = LINE ( 'NONE', #159, #118 ) ;
#342 = PRODUCT_DEFINITION_FORMATION_WITH_SPECIFIED_SOURCE ( 'ANY', '', #78, .NOT_KNOWN. ) ;
#343 = LINE ( 'NONE', #347, #272 ) ;
#344 = VECTOR ( 'NONE', #31, 39.37007874015748143 ) ;
#345 = ADVANCED_FACE ( 'NONE', ( #126 ), #16, .F. ) ;
#346 = ADVANCED_BREP_SHAPE_REPRESENTATION ( 'WCP-0934 Rev1', ( #241, #178 ), #311 ) ;
#347 = CARTESIAN_POINT ( 'NONE',  ( -23.50000000000000000, -0.5000000000000000000, 0.5000000000000000000 ) ) ;
ENDSEC;
END-ISO-10303-21;
