ISO-10303-21;
HEADER;
FILE_DESCRIPTION (( 'STEP AP214' ),
    '1' );
FILE_NAME ('WCP-0922 Rev1.step',
    '2023-12-29T01:05:54',
    ( '' ),
    ( '' ),
    'SwSTEP 2.0',
    'SolidWorks 2022',
    '' );
FILE_SCHEMA (( 'AUTOMOTIVE_DESIGN' ));
ENDSEC;

DATA;
#1 = FILL_AREA_STYLE ('',( #218 ) ) ;
#2 = VERTEX_POINT ( 'NONE', #221 ) ;
#3 = VECTOR ( 'NONE', #276, 39.37007874015748143 ) ;
#4 = VERTEX_POINT ( 'NONE', #167 ) ;
#5 = DIRECTION ( 'NONE',  ( 1.000000000000000000, 0.000000000000000000, 0.000000000000000000 ) ) ;
#6 = LINE ( 'NONE', #116, #302 ) ;
#7 = LINE ( 'NONE', #229, #242 ) ;
#8 = VECTOR ( 'NONE', #299, 39.37007874015748143 ) ;
#9 = ADVANCED_FACE ( 'NONE', ( #110 ), #317, .F. ) ;
#10 =( NAMED_UNIT ( * ) PLANE_ANGLE_UNIT ( ) SI_UNIT ( $, .RADIAN. ) );
#11 = DIRECTION ( 'NONE',  ( 0.000000000000000000, 0.000000000000000000, -1.000000000000000000 ) ) ;
#12 = DIRECTION ( 'NONE',  ( 0.000000000000000000, -0.000000000000000000, 1.000000000000000000 ) ) ;
#13 = MECHANICAL_DESIGN_GEOMETRIC_PRESENTATION_REPRESENTATION (  '', ( #228 ), #253 ) ;
#14 = EDGE_CURVE ( 'NONE', #308, #16, #114, .T. ) ;
#15 = CARTESIAN_POINT ( 'NONE',  ( 0.000000000000000000, 0.000000000000000000, 0.000000000000000000 ) ) ;
#16 = VERTEX_POINT ( 'NONE', #109 ) ;
#17 = ORIENTED_EDGE ( 'NONE', *, *, #237, .T. ) ;
#18 = ORIENTED_EDGE ( 'NONE', *, *, #204, .F. ) ;
#19 = CARTESIAN_POINT ( 'NONE',  ( -23.50000000000000000, 0.8749999999999997780, 0.3750000000000001110 ) ) ;
#20 = EDGE_CURVE ( 'NONE', #345, #339, #138, .T. ) ;
#21 = ORIENTED_EDGE ( 'NONE', *, *, #14, .F. ) ;
#22 = PRODUCT_DEFINITION_SHAPE ( 'NONE', 'NONE',  #31 ) ;
#23 = ORIENTED_EDGE ( 'NONE', *, *, #82, .T. ) ;
#24 = DIRECTION ( 'NONE',  ( 0.000000000000000000, -1.000000000000000000, 0.000000000000000000 ) ) ;
#25 = VECTOR ( 'NONE', #196, 39.37007874015748143 ) ;
#26 = CARTESIAN_POINT ( 'NONE',  ( -23.50000000000000000, 0.8749999999999997780, -0.3749999999999999445 ) ) ;
#27 = MANIFOLD_SOLID_BREP ( 'Extrude-Thin1', #72 ) ;
#28 = EDGE_LOOP ( 'NONE', ( #45, #153, #330, #107 ) ) ;
#29 = SURFACE_STYLE_FILL_AREA ( #1 ) ;
#30 = LINE ( 'NONE', #225, #201 ) ;
#31 = PRODUCT_DEFINITION ( 'UNKNOWN', '', #275, #269 ) ;
#32 = LINE ( 'NONE', #300, #326 ) ;
#33 = CARTESIAN_POINT ( 'NONE',  ( 23.50000000000000000, -0.8750000000000000000, -0.3749999999999999445 ) ) ;
#34 = CARTESIAN_POINT ( 'NONE',  ( 23.50000000000000000, 0.9999999999999998890, 0.5000000000000001110 ) ) ;
#35 = DIRECTION ( 'NONE',  ( 1.000000000000000000, 0.000000000000000000, -0.000000000000000000 ) ) ;
#36 = CARTESIAN_POINT ( 'NONE',  ( 23.50000000000000000, -0.8750000000000000000, 0.000000000000000000 ) ) ;
#37 = VECTOR ( 'NONE', #267, 39.37007874015748143 ) ;
#38 = DIMENSIONAL_EXPONENTS ( 1.000000000000000000, 0.000000000000000000, 0.000000000000000000, 0.000000000000000000, 0.000000000000000000, 0.000000000000000000, 0.000000000000000000 ) ;
#39 = FACE_OUTER_BOUND ( 'NONE', #28, .T. ) ;
#40 = CARTESIAN_POINT ( 'NONE',  ( 23.50000000000000000, 0.8749999999999997780, 0.3750000000000001110 ) ) ;
#41 = PLANE ( 'NONE',  #135 ) ;
#42 = CARTESIAN_POINT ( 'NONE',  ( -23.50000000000000000, 0.9999999999999998890, 0.5000000000000001110 ) ) ;
#43 = EDGE_CURVE ( 'NONE', #339, #157, #89, .T. ) ;
#44 = CARTESIAN_POINT ( 'NONE',  ( 23.50000000000000000, -1.000000000000000000, 0.5000000000000001110 ) ) ;
#45 = ORIENTED_EDGE ( 'NONE', *, *, #154, .F. ) ;
#46 = VECTOR ( 'NONE', #76, 39.37007874015748143 ) ;
#47 = LINE ( 'NONE', #305, #81 ) ;
#48 = ORIENTED_EDGE ( 'NONE', *, *, #277, .F. ) ;
#49 = SHAPE_DEFINITION_REPRESENTATION ( #22, #166 ) ;
#50 = ORIENTED_EDGE ( 'NONE', *, *, #324, .T. ) ;
#51 = EDGE_LOOP ( 'NONE', ( #254, #178, #103, #280 ) ) ;
#52 = VECTOR ( 'NONE', #246, 39.37007874015748143 ) ;
#53 = ORIENTED_EDGE ( 'NONE', *, *, #344, .T. ) ;
#54 = COLOUR_RGB ( '',0.8666666666666666963, 0.9098039215686274384, 1.000000000000000000 ) ;
#55 = ORIENTED_EDGE ( 'NONE', *, *, #160, .T. ) ;
#56 = FACE_OUTER_BOUND ( 'NONE', #132, .T. ) ;
#57 = DIRECTION ( 'NONE',  ( 1.000000000000000000, 0.000000000000000000, 0.000000000000000000 ) ) ;
#58 = VECTOR ( 'NONE', #83, 39.37007874015748143 ) ;
#59 = PLANE ( 'NONE',  #327 ) ;
#60 = PLANE ( 'NONE',  #124 ) ;
#61 =( LENGTH_UNIT ( ) NAMED_UNIT ( * ) SI_UNIT ( $, .METRE. ) );
#62 = ADVANCED_FACE ( 'NONE', ( #194 ), #319, .T. ) ;
#63 = FACE_OUTER_BOUND ( 'NONE', #215, .T. ) ;
#64 = DIRECTION ( 'NONE',  ( 0.000000000000000000, 1.000000000000000000, 0.000000000000000000 ) ) ;
#65 = LINE ( 'NONE', #332, #3 ) ;
#66 = AXIS2_PLACEMENT_3D ( 'NONE', #165, #294, #85 ) ;
#67 = ADVANCED_FACE ( 'NONE', ( #56 ), #240, .F. ) ;
#68 = CARTESIAN_POINT ( 'NONE',  ( 23.50000000000000000, -1.000000000000000000, 0.5000000000000001110 ) ) ;
#69 = CARTESIAN_POINT ( 'NONE',  ( 23.50000000000000000, 0.9999999999999998890, 0.5000000000000001110 ) ) ;
#70 = ORIENTED_EDGE ( 'NONE', *, *, #303, .F. ) ;
#71 = EDGE_LOOP ( 'NONE', ( #236, #105, #262, #257 ) ) ;
#72 = CLOSED_SHELL ( 'NONE', ( #137, #214, #142, #9, #199, #67, #92, #88, #62, #245 ) ) ;
#73 = LINE ( 'NONE', #203, #46 ) ;
#74 = ORIENTED_EDGE ( 'NONE', *, *, #100, .T. ) ;
#75 = EDGE_CURVE ( 'NONE', #261, #79, #290, .T. ) ;
#76 = DIRECTION ( 'NONE',  ( 0.000000000000000000, 0.000000000000000000, 1.000000000000000000 ) ) ;
#77 = APPLICATION_CONTEXT ( 'automotive_design' ) ;
#78 = ORIENTED_EDGE ( 'NONE', *, *, #222, .F. ) ;
#79 = VERTEX_POINT ( 'NONE', #26 ) ;
#80 = PRODUCT ( 'WCP-0922 Rev1', 'WCP-0922 Rev1', '', ( #183 ) ) ;
#81 = VECTOR ( 'NONE', #128, 39.37007874015748143 ) ;
#82 = EDGE_CURVE ( 'NONE', #141, #156, #193, .T. ) ;
#83 = DIRECTION ( 'NONE',  ( 0.000000000000000000, -1.000000000000000000, 0.000000000000000000 ) ) ;
#84 = APPLICATION_CONTEXT ( 'automotive_design' ) ;
#85 = DIRECTION ( 'NONE',  ( -1.000000000000000000, 0.000000000000000000, -0.000000000000000000 ) ) ;
#86 = VECTOR ( 'NONE', #265, 39.37007874015748143 ) ;
#87 = DIRECTION ( 'NONE',  ( 0.000000000000000000, -0.000000000000000000, 1.000000000000000000 ) ) ;
#88 = ADVANCED_FACE ( 'NONE', ( #39 ), #224, .T. ) ;
#89 = LINE ( 'NONE', #238, #37 ) ;
#90 = PLANE ( 'NONE',  #260 ) ;
#91 = DIRECTION ( 'NONE',  ( 0.000000000000000000, -1.000000000000000000, 0.000000000000000000 ) ) ;
#92 = ADVANCED_FACE ( 'NONE', ( #117 ), #60, .T. ) ;
#93 = CARTESIAN_POINT ( 'NONE',  ( -23.50000000000000000, -1.000000000000000000, -0.4999999999999999445 ) ) ;
#94 = CARTESIAN_POINT ( 'NONE',  ( -23.50000000000000000, -1.000000000000000000, 0.5000000000000001110 ) ) ;
#95 = CARTESIAN_POINT ( 'NONE',  ( 23.50000000000000000, -1.000000000000000000, -0.4999999999999999445 ) ) ;
#96 = DIMENSIONAL_EXPONENTS ( 1.000000000000000000, 0.000000000000000000, 0.000000000000000000, 0.000000000000000000, 0.000000000000000000, 0.000000000000000000, 0.000000000000000000 ) ;
#97 = DIRECTION ( 'NONE',  ( 0.000000000000000000, 1.000000000000000000, 0.000000000000000000 ) ) ;
#98 = CARTESIAN_POINT ( 'NONE',  ( -23.50000000000000000, -0.8750000000000000000, 0.000000000000000000 ) ) ;
#99 = VECTOR ( 'NONE', #91, 39.37007874015748143 ) ;
#100 = EDGE_CURVE ( 'NONE', #211, #208, #121, .T. ) ;
#101 = CARTESIAN_POINT ( 'NONE',  ( -23.50000000000000000, 0.9999999999999998890, 0.5000000000000001110 ) ) ;
#102 = ORIENTED_EDGE ( 'NONE', *, *, #148, .T. ) ;
#103 = ORIENTED_EDGE ( 'NONE', *, *, #282, .F. ) ;
#104 = EDGE_LOOP ( 'NONE', ( #191, #18, #55, #311 ) ) ;
#105 = ORIENTED_EDGE ( 'NONE', *, *, #241, .F. ) ;
#106 = EDGE_CURVE ( 'NONE', #2, #343, #296, .T. ) ;
#107 = ORIENTED_EDGE ( 'NONE', *, *, #241, .T. ) ;
#108 = COLOUR_RGB ( '',0.8666666666666666963, 0.9098039215686274384, 1.000000000000000000 ) ;
#109 = CARTESIAN_POINT ( 'NONE',  ( 23.50000000000000000, -0.8750000000000000000, 0.3750000000000001110 ) ) ;
#110 = FACE_OUTER_BOUND ( 'NONE', #51, .T. ) ;
#111 = UNCERTAINTY_MEASURE_WITH_UNIT (LENGTH_MEASURE( 1.000000000000000082E-05 ), #341, 'distance_accuracy_value', 'NONE');
#112 = CARTESIAN_POINT ( 'NONE',  ( 23.50000000000000000, -1.000000000000000000, 0.5000000000000001110 ) ) ;
#113 = AXIS2_PLACEMENT_3D ( 'NONE', #239, #24, #134 ) ;
#114 = LINE ( 'NONE', #216, #58 ) ;
#115 = DIRECTION ( 'NONE',  ( 0.000000000000000000, 0.000000000000000000, -1.000000000000000000 ) ) ;
#116 = CARTESIAN_POINT ( 'NONE',  ( 23.50000000000000000, -1.000000000000000000, 0.5000000000000001110 ) ) ;
#117 = FACE_OUTER_BOUND ( 'NONE', #342, .T. ) ;
#118 = DIRECTION ( 'NONE',  ( 0.000000000000000000, 1.000000000000000000, 0.000000000000000000 ) ) ;
#119 = DIMENSIONAL_EXPONENTS ( 1.000000000000000000, 0.000000000000000000, 0.000000000000000000, 0.000000000000000000, 0.000000000000000000, 0.000000000000000000, 0.000000000000000000 ) ;
#120 = LINE ( 'NONE', #34, #52 ) ;
#121 = LINE ( 'NONE', #168, #99 ) ;
#122 = LINE ( 'NONE', #272, #159 ) ;
#123 = CARTESIAN_POINT ( 'NONE',  ( 23.50000000000000000, 0.000000000000000000, -0.3749999999999999445 ) ) ;
#124 = AXIS2_PLACEMENT_3D ( 'NONE', #170, #325, #226 ) ;
#125 = CARTESIAN_POINT ( 'NONE',  ( 23.50000000000000000, 0.9999999999999998890, -0.4999999999999999445 ) ) ;
#126 = ORIENTED_EDGE ( 'NONE', *, *, #43, .F. ) ;
#127 = EDGE_LOOP ( 'NONE', ( #235, #187, #78, #288 ) ) ;
#128 = DIRECTION ( 'NONE',  ( 0.000000000000000000, 0.000000000000000000, -1.000000000000000000 ) ) ;
#129 = ORIENTED_EDGE ( 'NONE', *, *, #292, .F. ) ;
#130 = STYLED_ITEM ( 'NONE', ( #190 ), #27 ) ;
#131 = FACE_OUTER_BOUND ( 'NONE', #161, .T. ) ;
#132 = EDGE_LOOP ( 'NONE', ( #17, #129, #338, #102 ) ) ;
#133 = EDGE_LOOP ( 'NONE', ( #145, #307, #232, #281 ) ) ;
#134 = DIRECTION ( 'NONE',  ( 0.000000000000000000, -0.000000000000000000, -1.000000000000000000 ) ) ;
#135 = AXIS2_PLACEMENT_3D ( 'NONE', #328, #5, #115 ) ;
#136 = ORIENTED_EDGE ( 'NONE', *, *, #82, .F. ) ;
#137 = ADVANCED_FACE ( 'NONE', ( #174, #143 ), #41, .T. ) ;
#138 = LINE ( 'NONE', #162, #152 ) ;
#139 = DIRECTION ( 'NONE',  ( 0.000000000000000000, 0.000000000000000000, -1.000000000000000000 ) ) ;
#140 = AXIS2_PLACEMENT_3D ( 'NONE', #44, #251, #335 ) ;
#141 = VERTEX_POINT ( 'NONE', #146 ) ;
#142 = ADVANCED_FACE ( 'NONE', ( #63 ), #59, .F. ) ;
#143 = FACE_BOUND ( 'NONE', #213, .T. ) ;
#144 = CARTESIAN_POINT ( 'NONE',  ( 23.50000000000000000, -1.000000000000000000, -0.4999999999999999445 ) ) ;
#145 = ORIENTED_EDGE ( 'NONE', *, *, #43, .T. ) ;
#146 = CARTESIAN_POINT ( 'NONE',  ( -23.50000000000000000, -1.000000000000000000, -0.4999999999999999445 ) ) ;
#147 = LINE ( 'NONE', #123, #333 ) ;
#148 = EDGE_CURVE ( 'NONE', #345, #4, #32, .T. ) ;
#149 = FACE_OUTER_BOUND ( 'NONE', #127, .T. ) ;
#150 = DIRECTION ( 'NONE',  ( -1.000000000000000000, -0.000000000000000000, -0.000000000000000000 ) ) ;
#151 = LINE ( 'NONE', #98, #8 ) ;
#152 = VECTOR ( 'NONE', #139, 39.37007874015748143 ) ;
#153 = ORIENTED_EDGE ( 'NONE', *, *, #75, .F. ) ;
#154 = EDGE_CURVE ( 'NONE', #79, #211, #73, .T. ) ;
#155 = LENGTH_MEASURE_WITH_UNIT ( LENGTH_MEASURE( 0.02539999999999999897 ), #279 );
#156 = VERTEX_POINT ( 'NONE', #176 ) ;
#157 = VERTEX_POINT ( 'NONE', #125 ) ;
#158 = ORIENTED_EDGE ( 'NONE', *, *, #336, .F. ) ;
#159 = VECTOR ( 'NONE', #64, 39.37007874015748143 ) ;
#160 = EDGE_CURVE ( 'NONE', #16, #2, #47, .T. ) ;
#161 = EDGE_LOOP ( 'NONE', ( #136, #258, #158, #230 ) ) ;
#162 = CARTESIAN_POINT ( 'NONE',  ( 23.50000000000000000, -1.000000000000000000, 0.5000000000000001110 ) ) ;
#163 = CARTESIAN_POINT ( 'NONE',  ( 23.50000000000000000, 0.8749999999999997780, -0.3749999999999999445 ) ) ;
#164 = VECTOR ( 'NONE', #202, 39.37007874015748143 ) ;
#165 = CARTESIAN_POINT ( 'NONE',  ( 23.50000000000000000, 0.000000000000000000, 0.3750000000000001110 ) ) ;
#166 = ADVANCED_BREP_SHAPE_REPRESENTATION ( 'WCP-0922 Rev1', ( #27, #192 ), #209 ) ;
#167 = CARTESIAN_POINT ( 'NONE',  ( -23.50000000000000000, -1.000000000000000000, 0.5000000000000001110 ) ) ;
#168 = CARTESIAN_POINT ( 'NONE',  ( -23.50000000000000000, 0.000000000000000000, 0.3750000000000001110 ) ) ;
#169 = CARTESIAN_POINT ( 'NONE',  ( 23.50000000000000000, 0.8749999999999997780, 0.3750000000000001110 ) ) ;
#170 = CARTESIAN_POINT ( 'NONE',  ( 23.50000000000000000, 0.000000000000000000, -0.3749999999999999445 ) ) ;
#171 = CARTESIAN_POINT ( 'NONE',  ( 23.50000000000000000, 0.9999999999999998890, -0.4999999999999999445 ) ) ;
#172 = VECTOR ( 'NONE', #97, 39.37007874015748143 ) ;
#173 = DIRECTION ( 'NONE',  ( -1.000000000000000000, -0.000000000000000000, -0.000000000000000000 ) ) ;
#174 = FACE_OUTER_BOUND ( 'NONE', #133, .T. ) ;
#175 = LINE ( 'NONE', #42, #309 ) ;
#176 = CARTESIAN_POINT ( 'NONE',  ( -23.50000000000000000, 0.9999999999999998890, -0.4999999999999999445 ) ) ;
#177 = PRESENTATION_STYLE_ASSIGNMENT (( #310 ) ) ;
#178 = ORIENTED_EDGE ( 'NONE', *, *, #331, .F. ) ;
#179 = VECTOR ( 'NONE', #285, 39.37007874015748143 ) ;
#180 = FILL_AREA_STYLE_COLOUR ( '', #54 ) ;
#181 =( GEOMETRIC_REPRESENTATION_CONTEXT ( 3 ) GLOBAL_UNCERTAINTY_ASSIGNED_CONTEXT ( ( #318 ) ) GLOBAL_UNIT_ASSIGNED_CONTEXT ( ( #320, #266, #219 ) ) REPRESENTATION_CONTEXT ( 'NONE', 'WORKASPACE' ) );
#182 = VERTEX_POINT ( 'NONE', #69 ) ;
#183 = PRODUCT_CONTEXT ( 'NONE', #77, 'mechanical' ) ;
#184 = ORIENTED_EDGE ( 'NONE', *, *, #188, .F. ) ;
#185 = CARTESIAN_POINT ( 'NONE',  ( 23.50000000000000000, -0.8750000000000000000, 0.3750000000000001110 ) ) ;
#186 =( NAMED_UNIT ( * ) SI_UNIT ( $, .STERADIAN. ) SOLID_ANGLE_UNIT ( ) );
#187 = ORIENTED_EDGE ( 'NONE', *, *, #148, .F. ) ;
#188 = EDGE_CURVE ( 'NONE', #261, #308, #255, .T. ) ;
#189 = ORIENTED_EDGE ( 'NONE', *, *, #344, .F. ) ;
#190 = PRESENTATION_STYLE_ASSIGNMENT (( #217 ) ) ;
#191 = ORIENTED_EDGE ( 'NONE', *, *, #324, .F. ) ;
#192 = AXIS2_PLACEMENT_3D ( 'NONE', #15, #210, #337 ) ;
#193 = LINE ( 'NONE', #93, #172 ) ;
#194 = FACE_OUTER_BOUND ( 'NONE', #71, .T. ) ;
#195 = CARTESIAN_POINT ( 'NONE',  ( -23.50000000000000000, 0.000000000000000000, 0.000000000000000000 ) ) ;
#196 = DIRECTION ( 'NONE',  ( -1.000000000000000000, -0.000000000000000000, -0.000000000000000000 ) ) ;
#197 = DIRECTION ( 'NONE',  ( 0.000000000000000000, 0.000000000000000000, 1.000000000000000000 ) ) ;
#198 =( CONVERSION_BASED_UNIT ( 'INCH', #270 ) LENGTH_UNIT ( ) NAMED_UNIT ( #96 ) );
#199 = ADVANCED_FACE ( 'NONE', ( #149 ), #233, .F. ) ;
#200 = CARTESIAN_POINT ( 'NONE',  ( 23.50000000000000000, 0.8749999999999997780, -0.3749999999999999445 ) ) ;
#201 = VECTOR ( 'NONE', #173, 39.37007874015748143 ) ;
#202 = DIRECTION ( 'NONE',  ( -1.000000000000000000, -0.000000000000000000, -0.000000000000000000 ) ) ;
#203 = CARTESIAN_POINT ( 'NONE',  ( -23.50000000000000000, 0.8749999999999997780, 0.000000000000000000 ) ) ;
#204 = EDGE_CURVE ( 'NONE', #16, #208, #340, .T. ) ;
#205 = DIRECTION ( 'NONE',  ( 0.000000000000000000, 0.000000000000000000, 1.000000000000000000 ) ) ;
#206 = EDGE_LOOP ( 'NONE', ( #347, #286, #74, #50 ) ) ;
#207 = FILL_AREA_STYLE ('',( #180 ) ) ;
#208 = VERTEX_POINT ( 'NONE', #259 ) ;
#209 =( GEOMETRIC_REPRESENTATION_CONTEXT ( 3 ) GLOBAL_UNCERTAINTY_ASSIGNED_CONTEXT ( ( #289 ) ) GLOBAL_UNIT_ASSIGNED_CONTEXT ( ( #198, #10, #244 ) ) REPRESENTATION_CONTEXT ( 'NONE', 'WORKASPACE' ) );
#210 = DIRECTION ( 'NONE',  ( 0.000000000000000000, 0.000000000000000000, 1.000000000000000000 ) ) ;
#211 = VERTEX_POINT ( 'NONE', #19 ) ;
#212 = SURFACE_SIDE_STYLE ('',( #313 ) ) ;
#213 = EDGE_LOOP ( 'NONE', ( #184, #189, #234, #21 ) ) ;
#214 = ADVANCED_FACE ( 'NONE', ( #131, #323 ), #90, .F. ) ;
#215 = EDGE_LOOP ( 'NONE', ( #23, #70, #126, #315 ) ) ;
#216 = CARTESIAN_POINT ( 'NONE',  ( 23.50000000000000000, 0.000000000000000000, 0.3750000000000001110 ) ) ;
#217 = SURFACE_STYLE_USAGE ( .BOTH. , #293 ) ;
#218 = FILL_AREA_STYLE_COLOUR ( '', #108 ) ;
#219 =( NAMED_UNIT ( * ) SI_UNIT ( $, .STERADIAN. ) SOLID_ANGLE_UNIT ( ) );
#220 = PRESENTATION_LAYER_ASSIGNMENT (  '', '', ( #130 ) ) ;
#221 = CARTESIAN_POINT ( 'NONE',  ( 23.50000000000000000, -0.8750000000000000000, -0.3749999999999999445 ) ) ;
#222 = EDGE_CURVE ( 'NONE', #182, #345, #6, .T. ) ;
#223 = DIRECTION ( 'NONE',  ( -0.000000000000000000, -1.000000000000000000, -0.000000000000000000 ) ) ;
#224 = PLANE ( 'NONE',  #346 ) ;
#225 = CARTESIAN_POINT ( 'NONE',  ( 23.50000000000000000, -1.000000000000000000, -0.4999999999999999445 ) ) ;
#226 = DIRECTION ( 'NONE',  ( 1.000000000000000000, 0.000000000000000000, -0.000000000000000000 ) ) ;
#227 = DIRECTION ( 'NONE',  ( -0.000000000000000000, 1.000000000000000000, 0.000000000000000000 ) ) ;
#228 = STYLED_ITEM ( 'NONE', ( #177 ), #166 ) ;
#229 = CARTESIAN_POINT ( 'NONE',  ( -23.50000000000000000, -1.000000000000000000, 0.5000000000000001110 ) ) ;
#230 = ORIENTED_EDGE ( 'NONE', *, *, #295, .F. ) ;
#231 = CARTESIAN_POINT ( 'NONE',  ( 23.50000000000000000, 0.8749999999999997780, 0.000000000000000000 ) ) ;
#232 = ORIENTED_EDGE ( 'NONE', *, *, #222, .T. ) ;
#233 = PLANE ( 'NONE',  #140 ) ;
#234 = ORIENTED_EDGE ( 'NONE', *, *, #160, .F. ) ;
#235 = ORIENTED_EDGE ( 'NONE', *, *, #336, .T. ) ;
#236 = ORIENTED_EDGE ( 'NONE', *, *, #100, .F. ) ;
#237 = EDGE_CURVE ( 'NONE', #4, #141, #252, .T. ) ;
#238 = CARTESIAN_POINT ( 'NONE',  ( 23.50000000000000000, -1.000000000000000000, -0.4999999999999999445 ) ) ;
#239 = CARTESIAN_POINT ( 'NONE',  ( 23.50000000000000000, 0.9999999999999998890, 0.5000000000000001110 ) ) ;
#240 = PLANE ( 'NONE',  #321 ) ;
#241 = EDGE_CURVE ( 'NONE', #308, #211, #278, .T. ) ;
#242 = VECTOR ( 'NONE', #301, 39.37007874015748143 ) ;
#243 =( LENGTH_UNIT ( ) NAMED_UNIT ( * ) SI_UNIT ( $, .METRE. ) );
#244 =( NAMED_UNIT ( * ) SI_UNIT ( $, .STERADIAN. ) SOLID_ANGLE_UNIT ( ) );
#245 = ADVANCED_FACE ( 'NONE', ( #329 ), #334, .T. ) ;
#246 = DIRECTION ( 'NONE',  ( -1.000000000000000000, -0.000000000000000000, -0.000000000000000000 ) ) ;
#247 = VECTOR ( 'NONE', #11, 39.37007874015748143 ) ;
#248 = DIRECTION ( 'NONE',  ( 0.000000000000000000, -0.000000000000000000, -1.000000000000000000 ) ) ;
#249 = DIRECTION ( 'NONE',  ( 0.000000000000000000, -1.000000000000000000, 0.000000000000000000 ) ) ;
#250 = APPLICATION_PROTOCOL_DEFINITION ( 'draft international standard', 'automotive_design', 1998, #77 ) ;
#251 = DIRECTION ( 'NONE',  ( 0.000000000000000000, 0.000000000000000000, -1.000000000000000000 ) ) ;
#252 = LINE ( 'NONE', #94, #247 ) ;
#253 =( GEOMETRIC_REPRESENTATION_CONTEXT ( 3 ) GLOBAL_UNCERTAINTY_ASSIGNED_CONTEXT ( ( #111 ) ) GLOBAL_UNIT_ASSIGNED_CONTEXT ( ( #341, #256, #186 ) ) REPRESENTATION_CONTEXT ( 'NONE', 'WORKASPACE' ) );
#254 = ORIENTED_EDGE ( 'NONE', *, *, #295, .T. ) ;
#255 = LINE ( 'NONE', #231, #287 ) ;
#256 =( NAMED_UNIT ( * ) PLANE_ANGLE_UNIT ( ) SI_UNIT ( $, .RADIAN. ) );
#257 = ORIENTED_EDGE ( 'NONE', *, *, #204, .T. ) ;
#258 = ORIENTED_EDGE ( 'NONE', *, *, #237, .F. ) ;
#259 = CARTESIAN_POINT ( 'NONE',  ( -23.50000000000000000, -0.8750000000000000000, 0.3750000000000001110 ) ) ;
#260 = AXIS2_PLACEMENT_3D ( 'NONE', #195, #57, #268 ) ;
#261 = VERTEX_POINT ( 'NONE', #200 ) ;
#262 = ORIENTED_EDGE ( 'NONE', *, *, #14, .T. ) ;
#263 = LENGTH_MEASURE_WITH_UNIT ( LENGTH_MEASURE( 0.02539999999999999897 ), #243 );
#264 = AXIS2_PLACEMENT_3D ( 'NONE', #36, #227, #12 ) ;
#265 = DIRECTION ( 'NONE',  ( -1.000000000000000000, -0.000000000000000000, -0.000000000000000000 ) ) ;
#266 =( NAMED_UNIT ( * ) PLANE_ANGLE_UNIT ( ) SI_UNIT ( $, .RADIAN. ) );
#267 = DIRECTION ( 'NONE',  ( 0.000000000000000000, 1.000000000000000000, 0.000000000000000000 ) ) ;
#268 = DIRECTION ( 'NONE',  ( 0.000000000000000000, 0.000000000000000000, -1.000000000000000000 ) ) ;
#269 = PRODUCT_DEFINITION_CONTEXT ( 'detailed design', #84, 'design' ) ;
#270 = LENGTH_MEASURE_WITH_UNIT ( LENGTH_MEASURE( 0.02539999999999999897 ), #61 );
#271 = PRODUCT_RELATED_PRODUCT_CATEGORY ( 'part', '', ( #80 ) ) ;
#272 = CARTESIAN_POINT ( 'NONE',  ( -23.50000000000000000, 0.000000000000000000, -0.3749999999999999445 ) ) ;
#273 = ORIENTED_EDGE ( 'NONE', *, *, #106, .F. ) ;
#274 = DIRECTION ( 'NONE',  ( -1.000000000000000000, -0.000000000000000000, -0.000000000000000000 ) ) ;
#275 = PRODUCT_DEFINITION_FORMATION_WITH_SPECIFIED_SOURCE ( 'ANY', '', #80, .NOT_KNOWN. ) ;
#276 = DIRECTION ( 'NONE',  ( 0.000000000000000000, 0.000000000000000000, 1.000000000000000000 ) ) ;
#277 = EDGE_CURVE ( 'NONE', #343, #79, #122, .T. ) ;
#278 = LINE ( 'NONE', #169, #25 ) ;
#279 =( LENGTH_UNIT ( ) NAMED_UNIT ( * ) SI_UNIT ( $, .METRE. ) );
#280 = ORIENTED_EDGE ( 'NONE', *, *, #303, .T. ) ;
#281 = ORIENTED_EDGE ( 'NONE', *, *, #20, .T. ) ;
#282 = EDGE_CURVE ( 'NONE', #157, #182, #65, .T. ) ;
#283 = APPLICATION_PROTOCOL_DEFINITION ( 'draft international standard', 'automotive_design', 1998, #84 ) ;
#284 = VERTEX_POINT ( 'NONE', #101 ) ;
#285 = DIRECTION ( 'NONE',  ( -1.000000000000000000, -0.000000000000000000, -0.000000000000000000 ) ) ;
#286 = ORIENTED_EDGE ( 'NONE', *, *, #154, .T. ) ;
#287 = VECTOR ( 'NONE', #312, 39.37007874015748143 ) ;
#288 = ORIENTED_EDGE ( 'NONE', *, *, #331, .T. ) ;
#289 = UNCERTAINTY_MEASURE_WITH_UNIT (LENGTH_MEASURE( 1.000000000000000082E-05 ), #198, 'distance_accuracy_value', 'NONE');
#290 = LINE ( 'NONE', #163, #86 ) ;
#291 = VECTOR ( 'NONE', #150, 39.37007874015748143 ) ;
#292 = EDGE_CURVE ( 'NONE', #339, #141, #30, .T. ) ;
#293 = SURFACE_SIDE_STYLE ('',( #29 ) ) ;
#294 = DIRECTION ( 'NONE',  ( 0.000000000000000000, 0.000000000000000000, -1.000000000000000000 ) ) ;
#295 = EDGE_CURVE ( 'NONE', #156, #284, #175, .T. ) ;
#296 = LINE ( 'NONE', #33, #291 ) ;
#297 = MECHANICAL_DESIGN_GEOMETRIC_PRESENTATION_REPRESENTATION (  '', ( #130 ), #181 ) ;
#298 = CARTESIAN_POINT ( 'NONE',  ( 23.50000000000000000, 0.8749999999999997780, 0.000000000000000000 ) ) ;
#299 = DIRECTION ( 'NONE',  ( 0.000000000000000000, 0.000000000000000000, -1.000000000000000000 ) ) ;
#300 = CARTESIAN_POINT ( 'NONE',  ( 23.50000000000000000, -1.000000000000000000, 0.5000000000000001110 ) ) ;
#301 = DIRECTION ( 'NONE',  ( -0.000000000000000000, -1.000000000000000000, -0.000000000000000000 ) ) ;
#302 = VECTOR ( 'NONE', #223, 39.37007874015748143 ) ;
#303 = EDGE_CURVE ( 'NONE', #157, #156, #304, .T. ) ;
#304 = LINE ( 'NONE', #171, #164 ) ;
#305 = CARTESIAN_POINT ( 'NONE',  ( 23.50000000000000000, -0.8750000000000000000, 0.000000000000000000 ) ) ;
#306 = CARTESIAN_POINT ( 'NONE',  ( -23.50000000000000000, -0.8750000000000000000, -0.3749999999999999445 ) ) ;
#307 = ORIENTED_EDGE ( 'NONE', *, *, #282, .T. ) ;
#308 = VERTEX_POINT ( 'NONE', #40 ) ;
#309 = VECTOR ( 'NONE', #205, 39.37007874015748143 ) ;
#310 = SURFACE_STYLE_USAGE ( .BOTH. , #212 ) ;
#311 = ORIENTED_EDGE ( 'NONE', *, *, #106, .T. ) ;
#312 = DIRECTION ( 'NONE',  ( 0.000000000000000000, 0.000000000000000000, 1.000000000000000000 ) ) ;
#313 = SURFACE_STYLE_FILL_AREA ( #207 ) ;
#314 = ORIENTED_EDGE ( 'NONE', *, *, #75, .T. ) ;
#315 = ORIENTED_EDGE ( 'NONE', *, *, #292, .T. ) ;
#316 = PRESENTATION_LAYER_ASSIGNMENT (  '', '', ( #228 ) ) ;
#317 = PLANE ( 'NONE',  #113 ) ;
#318 = UNCERTAINTY_MEASURE_WITH_UNIT (LENGTH_MEASURE( 1.000000000000000082E-05 ), #320, 'distance_accuracy_value', 'NONE');
#319 = PLANE ( 'NONE',  #66 ) ;
#320 =( CONVERSION_BASED_UNIT ( 'INCH', #263 ) LENGTH_UNIT ( ) NAMED_UNIT ( #38 ) );
#321 = AXIS2_PLACEMENT_3D ( 'NONE', #112, #322, #87 ) ;
#322 = DIRECTION ( 'NONE',  ( -0.000000000000000000, 1.000000000000000000, 0.000000000000000000 ) ) ;
#323 = FACE_BOUND ( 'NONE', #206, .T. ) ;
#324 = EDGE_CURVE ( 'NONE', #208, #343, #151, .T. ) ;
#325 = DIRECTION ( 'NONE',  ( 0.000000000000000000, 0.000000000000000000, 1.000000000000000000 ) ) ;
#326 = VECTOR ( 'NONE', #274, 39.37007874015748143 ) ;
#327 = AXIS2_PLACEMENT_3D ( 'NONE', #95, #197, #35 ) ;
#328 = CARTESIAN_POINT ( 'NONE',  ( 23.50000000000000000, 0.000000000000000000, 0.000000000000000000 ) ) ;
#329 = FACE_OUTER_BOUND ( 'NONE', #104, .T. ) ;
#330 = ORIENTED_EDGE ( 'NONE', *, *, #188, .T. ) ;
#331 = EDGE_CURVE ( 'NONE', #182, #284, #120, .T. ) ;
#332 = CARTESIAN_POINT ( 'NONE',  ( 23.50000000000000000, 0.9999999999999998890, 0.5000000000000001110 ) ) ;
#333 = VECTOR ( 'NONE', #118, 39.37007874015748143 ) ;
#334 = PLANE ( 'NONE',  #264 ) ;
#335 = DIRECTION ( 'NONE',  ( -1.000000000000000000, 0.000000000000000000, -0.000000000000000000 ) ) ;
#336 = EDGE_CURVE ( 'NONE', #284, #4, #7, .T. ) ;
#337 = DIRECTION ( 'NONE',  ( 1.000000000000000000, 0.000000000000000000, 0.000000000000000000 ) ) ;
#338 = ORIENTED_EDGE ( 'NONE', *, *, #20, .F. ) ;
#339 = VERTEX_POINT ( 'NONE', #144 ) ;
#340 = LINE ( 'NONE', #185, #179 ) ;
#341 =( CONVERSION_BASED_UNIT ( 'INCH', #155 ) LENGTH_UNIT ( ) NAMED_UNIT ( #119 ) );
#342 = EDGE_LOOP ( 'NONE', ( #48, #273, #53, #314 ) ) ;
#343 = VERTEX_POINT ( 'NONE', #306 ) ;
#344 = EDGE_CURVE ( 'NONE', #2, #261, #147, .T. ) ;
#345 = VERTEX_POINT ( 'NONE', #68 ) ;
#346 = AXIS2_PLACEMENT_3D ( 'NONE', #298, #249, #248 ) ;
#347 = ORIENTED_EDGE ( 'NONE', *, *, #277, .T. ) ;
ENDSEC;
END-ISO-10303-21;
