ISO-10303-21;
HEADER;
FILE_DESCRIPTION (( 'STEP AP214' ),
    '1' );
FILE_NAME ('WCP-0921 Rev1.step',
    '2023-11-16T21:59:01',
    ( '' ),
    ( '' ),
    'SwSTEP 2.0',
    'SolidWorks 2022',
    '' );
FILE_SCHEMA (( 'AUTOMOTIVE_DESIGN' ));
ENDSEC;

DATA;
#1 =( CONVERSION_BASED_UNIT ( 'INCH', #29 ) LENGTH_UNIT ( ) NAMED_UNIT ( #75 ) );
#2 = DIRECTION ( 'NONE',  ( 0.000000000000000000, 1.000000000000000000, 0.000000000000000000 ) ) ;
#3 = FILL_AREA_STYLE ('',( #137 ) ) ;
#4 = VECTOR ( 'NONE', #337, 39.37007874015748143 ) ;
#5 = DIRECTION ( 'NONE',  ( 0.000000000000000000, 0.000000000000000000, -1.000000000000000000 ) ) ;
#6 = LINE ( 'NONE', #334, #84 ) ;
#7 = CARTESIAN_POINT ( 'NONE',  ( 23.50000000000000000, 0.9374999999999998890, -0.4374999999999998890 ) ) ;
#8 =( CONVERSION_BASED_UNIT ( 'INCH', #139 ) LENGTH_UNIT ( ) NAMED_UNIT ( #189 ) );
#9 =( GEOMETRIC_REPRESENTATION_CONTEXT ( 3 ) GLOBAL_UNCERTAINTY_ASSIGNED_CONTEXT ( ( #202 ) ) GLOBAL_UNIT_ASSIGNED_CONTEXT ( ( #316, #219, #133 ) ) REPRESENTATION_CONTEXT ( 'NONE', 'WORKASPACE' ) );
#10 = DIRECTION ( 'NONE',  ( -1.000000000000000000, -0.000000000000000000, -0.000000000000000000 ) ) ;
#11 = EDGE_CURVE ( 'NONE', #198, #19, #196, .T. ) ;
#12 = CARTESIAN_POINT ( 'NONE',  ( 23.50000000000000000, 0.9374999999999998890, 0.000000000000000000 ) ) ;
#13 = STYLED_ITEM ( 'NONE', ( #52 ), #97 ) ;
#14 = LINE ( 'NONE', #190, #32 ) ;
#15 = ADVANCED_BREP_SHAPE_REPRESENTATION ( 'WCP-0921 Rev1', ( #97, #344 ), #9 ) ;
#16 = EDGE_LOOP ( 'NONE', ( #157, #293, #346, #216 ) ) ;
#17 = CARTESIAN_POINT ( 'NONE',  ( -23.50000000000000000, 0.9374999999999998890, 0.4375000000000000555 ) ) ;
#18 = AXIS2_PLACEMENT_3D ( 'NONE', #342, #184, #53 ) ;
#19 = VERTEX_POINT ( 'NONE', #78 ) ;
#20 = DIRECTION ( 'NONE',  ( 0.000000000000000000, 0.000000000000000000, 1.000000000000000000 ) ) ;
#21 = PRODUCT_RELATED_PRODUCT_CATEGORY ( 'part', '', ( #330 ) ) ;
#22 = VERTEX_POINT ( 'NONE', #54 ) ;
#23 = CARTESIAN_POINT ( 'NONE',  ( 23.50000000000000000, 0.9999999999999998890, -0.4999999999999999445 ) ) ;
#24 = EDGE_LOOP ( 'NONE', ( #124, #305, #205, #211 ) ) ;
#25 = LINE ( 'NONE', #27, #309 ) ;
#26 = ORIENTED_EDGE ( 'NONE', *, *, #57, .F. ) ;
#27 = CARTESIAN_POINT ( 'NONE',  ( 23.50000000000000000, 0.9374999999999998890, 0.000000000000000000 ) ) ;
#28 = DIMENSIONAL_EXPONENTS ( 1.000000000000000000, 0.000000000000000000, 0.000000000000000000, 0.000000000000000000, 0.000000000000000000, 0.000000000000000000, 0.000000000000000000 ) ;
#29 = LENGTH_MEASURE_WITH_UNIT ( LENGTH_MEASURE( 0.02539999999999999897 ), #107 );
#30 = PLANE ( 'NONE',  #31 ) ;
#31 = AXIS2_PLACEMENT_3D ( 'NONE', #244, #300, #5 ) ;
#32 = VECTOR ( 'NONE', #98, 39.37007874015748143 ) ;
#33 = EDGE_CURVE ( 'NONE', #86, #19, #56, .T. ) ;
#34 = CARTESIAN_POINT ( 'NONE',  ( 23.50000000000000000, -1.000000000000000000, 0.5000000000000001110 ) ) ;
#35 = FACE_OUTER_BOUND ( 'NONE', #177, .T. ) ;
#36 = FACE_OUTER_BOUND ( 'NONE', #41, .T. ) ;
#37 = CARTESIAN_POINT ( 'NONE',  ( 23.50000000000000000, 0.9374999999999998890, 0.4375000000000000555 ) ) ;
#38 = PLANE ( 'NONE',  #72 ) ;
#39 = UNCERTAINTY_MEASURE_WITH_UNIT (LENGTH_MEASURE( 1.000000000000000082E-05 ), #8, 'distance_accuracy_value', 'NONE');
#40 = VECTOR ( 'NONE', #307, 39.37007874015748143 ) ;
#41 = EDGE_LOOP ( 'NONE', ( #167, #66, #326, #259 ) ) ;
#42 = DIRECTION ( 'NONE',  ( -1.000000000000000000, -0.000000000000000000, -0.000000000000000000 ) ) ;
#43 = ORIENTED_EDGE ( 'NONE', *, *, #154, .T. ) ;
#44 = EDGE_CURVE ( 'NONE', #102, #181, #165, .T. ) ;
#45 = DIRECTION ( 'NONE',  ( 0.000000000000000000, 0.000000000000000000, -1.000000000000000000 ) ) ;
#46 = VECTOR ( 'NONE', #42, 39.37007874015748143 ) ;
#47 = VERTEX_POINT ( 'NONE', #131 ) ;
#48 = FACE_OUTER_BOUND ( 'NONE', #322, .T. ) ;
#49 = PLANE ( 'NONE',  #108 ) ;
#50 = VERTEX_POINT ( 'NONE', #246 ) ;
#51 = FACE_OUTER_BOUND ( 'NONE', #286, .T. ) ;
#52 = PRESENTATION_STYLE_ASSIGNMENT (( #135 ) ) ;
#53 = DIRECTION ( 'NONE',  ( -1.000000000000000000, 0.000000000000000000, -0.000000000000000000 ) ) ;
#54 = CARTESIAN_POINT ( 'NONE',  ( -23.50000000000000000, -0.9375000000000000000, -0.4374999999999998890 ) ) ;
#55 = CARTESIAN_POINT ( 'NONE',  ( 23.50000000000000000, 0.9999999999999998890, 0.5000000000000001110 ) ) ;
#56 = LINE ( 'NONE', #80, #175 ) ;
#57 = EDGE_CURVE ( 'NONE', #86, #76, #304, .T. ) ;
#58 = ADVANCED_FACE ( 'NONE', ( #140 ), #105, .F. ) ;
#59 = CARTESIAN_POINT ( 'NONE',  ( 23.50000000000000000, -1.000000000000000000, 0.5000000000000001110 ) ) ;
#60 = STYLED_ITEM ( 'NONE', ( #251 ), #15 ) ;
#61 = ORIENTED_EDGE ( 'NONE', *, *, #145, .F. ) ;
#62 = DIRECTION ( 'NONE',  ( 0.000000000000000000, -0.000000000000000000, -1.000000000000000000 ) ) ;
#63 = LINE ( 'NONE', #254, #121 ) ;
#64 = VECTOR ( 'NONE', #308, 39.37007874015748143 ) ;
#65 = DIRECTION ( 'NONE',  ( 0.000000000000000000, 1.000000000000000000, 0.000000000000000000 ) ) ;
#66 = ORIENTED_EDGE ( 'NONE', *, *, #182, .F. ) ;
#67 = DIRECTION ( 'NONE',  ( 0.000000000000000000, -0.000000000000000000, 1.000000000000000000 ) ) ;
#68 = ORIENTED_EDGE ( 'NONE', *, *, #332, .T. ) ;
#69 = CARTESIAN_POINT ( 'NONE',  ( 23.50000000000000000, -1.000000000000000000, -0.4999999999999999445 ) ) ;
#70 = MECHANICAL_DESIGN_GEOMETRIC_PRESENTATION_REPRESENTATION (  '', ( #13 ), #274 ) ;
#71 = ORIENTED_EDGE ( 'NONE', *, *, #210, .F. ) ;
#72 = AXIS2_PLACEMENT_3D ( 'NONE', #87, #149, #113 ) ;
#73 = EDGE_LOOP ( 'NONE', ( #277, #266, #261, #186 ) ) ;
#74 = CARTESIAN_POINT ( 'NONE',  ( -23.50000000000000000, -1.000000000000000000, 0.5000000000000001110 ) ) ;
#75 = DIMENSIONAL_EXPONENTS ( 1.000000000000000000, 0.000000000000000000, 0.000000000000000000, 0.000000000000000000, 0.000000000000000000, 0.000000000000000000, 0.000000000000000000 ) ;
#76 = VERTEX_POINT ( 'NONE', #59 ) ;
#77 = CARTESIAN_POINT ( 'NONE',  ( -23.50000000000000000, -1.000000000000000000, -0.4999999999999999445 ) ) ;
#78 = CARTESIAN_POINT ( 'NONE',  ( -23.50000000000000000, 0.9999999999999998890, 0.5000000000000001110 ) ) ;
#79 = DIRECTION ( 'NONE',  ( 0.000000000000000000, -1.000000000000000000, 0.000000000000000000 ) ) ;
#80 = CARTESIAN_POINT ( 'NONE',  ( 23.50000000000000000, 0.9999999999999998890, 0.5000000000000001110 ) ) ;
#81 = VECTOR ( 'NONE', #311, 39.37007874015748143 ) ;
#82 = DIRECTION ( 'NONE',  ( 0.000000000000000000, -0.000000000000000000, 1.000000000000000000 ) ) ;
#83 = DIRECTION ( 'NONE',  ( -1.000000000000000000, -0.000000000000000000, -0.000000000000000000 ) ) ;
#84 = VECTOR ( 'NONE', #287, 39.37007874015748143 ) ;
#85 =( NAMED_UNIT ( * ) SI_UNIT ( $, .STERADIAN. ) SOLID_ANGLE_UNIT ( ) );
#86 = VERTEX_POINT ( 'NONE', #138 ) ;
#87 = CARTESIAN_POINT ( 'NONE',  ( 23.50000000000000000, 0.000000000000000000, -0.4374999999999998890 ) ) ;
#88 = DIRECTION ( 'NONE',  ( 1.000000000000000000, 0.000000000000000000, 0.000000000000000000 ) ) ;
#89 = APPLICATION_CONTEXT ( 'automotive_design' ) ;
#90 = CARTESIAN_POINT ( 'NONE',  ( 23.50000000000000000, 0.000000000000000000, -0.4374999999999998890 ) ) ;
#91 = AXIS2_PLACEMENT_3D ( 'NONE', #55, #123, #243 ) ;
#92 = CARTESIAN_POINT ( 'NONE',  ( -23.50000000000000000, 0.9374999999999998890, -0.4374999999999998890 ) ) ;
#93 = ADVANCED_FACE ( 'NONE', ( #35, #218 ), #30, .T. ) ;
#94 = ORIENTED_EDGE ( 'NONE', *, *, #106, .T. ) ;
#95 = CARTESIAN_POINT ( 'NONE',  ( 23.50000000000000000, -0.9375000000000000000, -0.4374999999999998890 ) ) ;
#96 = VERTEX_POINT ( 'NONE', #111 ) ;
#97 = MANIFOLD_SOLID_BREP ( 'Extrude-Thin1', #327 ) ;
#98 = DIRECTION ( 'NONE',  ( 0.000000000000000000, 0.000000000000000000, -1.000000000000000000 ) ) ;
#99 = ORIENTED_EDGE ( 'NONE', *, *, #11, .T. ) ;
#100 = LINE ( 'NONE', #214, #220 ) ;
#101 =( GEOMETRIC_REPRESENTATION_CONTEXT ( 3 ) GLOBAL_UNCERTAINTY_ASSIGNED_CONTEXT ( ( #39 ) ) GLOBAL_UNIT_ASSIGNED_CONTEXT ( ( #8, #141, #85 ) ) REPRESENTATION_CONTEXT ( 'NONE', 'WORKASPACE' ) );
#102 = VERTEX_POINT ( 'NONE', #92 ) ;
#103 = CARTESIAN_POINT ( 'NONE',  ( -23.50000000000000000, -1.000000000000000000, 0.5000000000000001110 ) ) ;
#104 = SURFACE_SIDE_STYLE ('',( #194 ) ) ;
#105 = PLANE ( 'NONE',  #229 ) ;
#106 = EDGE_CURVE ( 'NONE', #76, #47, #6, .T. ) ;
#107 =( LENGTH_UNIT ( ) NAMED_UNIT ( * ) SI_UNIT ( $, .METRE. ) );
#108 = AXIS2_PLACEMENT_3D ( 'NONE', #265, #239, #160 ) ;
#109 = SURFACE_SIDE_STYLE ('',( #200 ) ) ;
#110 =( NAMED_UNIT ( * ) SI_UNIT ( $, .STERADIAN. ) SOLID_ANGLE_UNIT ( ) );
#111 = CARTESIAN_POINT ( 'NONE',  ( 23.50000000000000000, -0.9375000000000000000, 0.4375000000000000555 ) ) ;
#112 = FACE_OUTER_BOUND ( 'NONE', #24, .T. ) ;
#113 = DIRECTION ( 'NONE',  ( 1.000000000000000000, 0.000000000000000000, -0.000000000000000000 ) ) ;
#114 = UNCERTAINTY_MEASURE_WITH_UNIT (LENGTH_MEASURE( 1.000000000000000082E-05 ), #1, 'distance_accuracy_value', 'NONE');
#115 = LINE ( 'NONE', #90, #152 ) ;
#116 = VECTOR ( 'NONE', #275, 39.37007874015748143 ) ;
#117 = EDGE_CURVE ( 'NONE', #288, #242, #203, .T. ) ;
#118 = EDGE_CURVE ( 'NONE', #47, #242, #206, .T. ) ;
#119 = FACE_BOUND ( 'NONE', #73, .T. ) ;
#120 = ORIENTED_EDGE ( 'NONE', *, *, #161, .T. ) ;
#121 = VECTOR ( 'NONE', #170, 39.37007874015748143 ) ;
#122 = VERTEX_POINT ( 'NONE', #7 ) ;
#123 = DIRECTION ( 'NONE',  ( 0.000000000000000000, -1.000000000000000000, 0.000000000000000000 ) ) ;
#124 = ORIENTED_EDGE ( 'NONE', *, *, #44, .F. ) ;
#125 = DIRECTION ( 'NONE',  ( -1.000000000000000000, -0.000000000000000000, -0.000000000000000000 ) ) ;
#126 = ORIENTED_EDGE ( 'NONE', *, *, #271, .T. ) ;
#127 = LINE ( 'NONE', #241, #250 ) ;
#128 = PRODUCT_DEFINITION_FORMATION_WITH_SPECIFIED_SOURCE ( 'ANY', '', #330, .NOT_KNOWN. ) ;
#129 = ORIENTED_EDGE ( 'NONE', *, *, #117, .F. ) ;
#130 = DIRECTION ( 'NONE',  ( 0.000000000000000000, 0.000000000000000000, 1.000000000000000000 ) ) ;
#131 = CARTESIAN_POINT ( 'NONE',  ( 23.50000000000000000, -1.000000000000000000, -0.4999999999999999445 ) ) ;
#132 = ADVANCED_FACE ( 'NONE', ( #36 ), #260, .T. ) ;
#133 =( NAMED_UNIT ( * ) SI_UNIT ( $, .STERADIAN. ) SOLID_ANGLE_UNIT ( ) );
#134 = ORIENTED_EDGE ( 'NONE', *, *, #318, .F. ) ;
#135 = SURFACE_STYLE_USAGE ( .BOTH. , #104 ) ;
#136 = VECTOR ( 'NONE', #125, 39.37007874015748143 ) ;
#137 = FILL_AREA_STYLE_COLOUR ( '', #147 ) ;
#138 = CARTESIAN_POINT ( 'NONE',  ( 23.50000000000000000, 0.9999999999999998890, 0.5000000000000001110 ) ) ;
#139 = LENGTH_MEASURE_WITH_UNIT ( LENGTH_MEASURE( 0.02539999999999999897 ), #280 );
#140 = FACE_OUTER_BOUND ( 'NONE', #16, .T. ) ;
#141 =( NAMED_UNIT ( * ) PLANE_ANGLE_UNIT ( ) SI_UNIT ( $, .RADIAN. ) );
#142 = PLANE ( 'NONE',  #282 ) ;
#143 = APPLICATION_PROTOCOL_DEFINITION ( 'draft international standard', 'automotive_design', 1998, #226 ) ;
#144 = DIRECTION ( 'NONE',  ( -1.000000000000000000, -0.000000000000000000, -0.000000000000000000 ) ) ;
#145 = EDGE_CURVE ( 'NONE', #181, #166, #313, .T. ) ;
#146 = CARTESIAN_POINT ( 'NONE',  ( 23.50000000000000000, 0.9999999999999998890, -0.4999999999999999445 ) ) ;
#147 = COLOUR_RGB ( '',0.8666666666666666963, 0.9098039215686274384, 1.000000000000000000 ) ;
#148 = ORIENTED_EDGE ( 'NONE', *, *, #118, .T. ) ;
#149 = DIRECTION ( 'NONE',  ( 0.000000000000000000, 0.000000000000000000, 1.000000000000000000 ) ) ;
#150 = ORIENTED_EDGE ( 'NONE', *, *, #182, .T. ) ;
#151 = LINE ( 'NONE', #228, #81 ) ;
#152 = VECTOR ( 'NONE', #65, 39.37007874015748143 ) ;
#153 = ORIENTED_EDGE ( 'NONE', *, *, #332, .F. ) ;
#154 = EDGE_CURVE ( 'NONE', #47, #310, #178, .T. ) ;
#155 = LINE ( 'NONE', #158, #262 ) ;
#156 = EDGE_CURVE ( 'NONE', #122, #102, #151, .T. ) ;
#157 = ORIENTED_EDGE ( 'NONE', *, *, #117, .T. ) ;
#158 = CARTESIAN_POINT ( 'NONE',  ( 23.50000000000000000, 0.9999999999999998890, 0.5000000000000001110 ) ) ;
#159 = EDGE_LOOP ( 'NONE', ( #153, #129, #270, #207 ) ) ;
#160 = DIRECTION ( 'NONE',  ( -1.000000000000000000, 0.000000000000000000, -0.000000000000000000 ) ) ;
#161 = EDGE_CURVE ( 'NONE', #310, #198, #281, .T. ) ;
#162 = DIRECTION ( 'NONE',  ( 0.000000000000000000, 0.000000000000000000, 1.000000000000000000 ) ) ;
#163 = SURFACE_STYLE_USAGE ( .BOTH. , #109 ) ;
#164 = VECTOR ( 'NONE', #278, 39.37007874015748143 ) ;
#165 = LINE ( 'NONE', #252, #341 ) ;
#166 = VERTEX_POINT ( 'NONE', #230 ) ;
#167 = ORIENTED_EDGE ( 'NONE', *, *, #249, .F. ) ;
#168 = SHAPE_DEFINITION_REPRESENTATION ( #208, #15 ) ;
#169 = CARTESIAN_POINT ( 'NONE',  ( -23.50000000000000000, 0.000000000000000000, 0.4375000000000000555 ) ) ;
#170 = DIRECTION ( 'NONE',  ( 0.000000000000000000, 1.000000000000000000, 0.000000000000000000 ) ) ;
#171 = EDGE_CURVE ( 'NONE', #338, #22, #201, .T. ) ;
#172 = ADVANCED_FACE ( 'NONE', ( #329 ), #38, .T. ) ;
#173 = VECTOR ( 'NONE', #225, 39.37007874015748143 ) ;
#174 = CARTESIAN_POINT ( 'NONE',  ( -23.50000000000000000, 0.9999999999999998890, -0.4999999999999999445 ) ) ;
#175 = VECTOR ( 'NONE', #83, 39.37007874015748143 ) ;
#176 = AXIS2_PLACEMENT_3D ( 'NONE', #302, #130, #263 ) ;
#177 = EDGE_LOOP ( 'NONE', ( #43, #126, #232, #94 ) ) ;
#178 = LINE ( 'NONE', #69, #64 ) ;
#179 = ORIENTED_EDGE ( 'NONE', *, *, #171, .F. ) ;
#180 = PLANE ( 'NONE',  #204 ) ;
#181 = VERTEX_POINT ( 'NONE', #17 ) ;
#182 = EDGE_CURVE ( 'NONE', #96, #166, #279, .T. ) ;
#183 = ADVANCED_FACE ( 'NONE', ( #256, #119 ), #180, .F. ) ;
#184 = DIRECTION ( 'NONE',  ( 0.000000000000000000, 0.000000000000000000, -1.000000000000000000 ) ) ;
#185 = AXIS2_PLACEMENT_3D ( 'NONE', #209, #255, #67 ) ;
#186 = ORIENTED_EDGE ( 'NONE', *, *, #249, .T. ) ;
#187 = DIRECTION ( 'NONE',  ( 0.000000000000000000, 0.000000000000000000, -1.000000000000000000 ) ) ;
#188 = ORIENTED_EDGE ( 'NONE', *, *, #161, .F. ) ;
#189 = DIMENSIONAL_EXPONENTS ( 1.000000000000000000, 0.000000000000000000, 0.000000000000000000, 0.000000000000000000, 0.000000000000000000, 0.000000000000000000, 0.000000000000000000 ) ;
#190 = CARTESIAN_POINT ( 'NONE',  ( 23.50000000000000000, -0.9375000000000000000, 0.000000000000000000 ) ) ;
#191 = CARTESIAN_POINT ( 'NONE',  ( 23.50000000000000000, -1.000000000000000000, 0.5000000000000001110 ) ) ;
#192 = LINE ( 'NONE', #74, #335 ) ;
#193 = DIRECTION ( 'NONE',  ( -0.000000000000000000, 1.000000000000000000, 0.000000000000000000 ) ) ;
#194 = SURFACE_STYLE_FILL_AREA ( #224 ) ;
#195 = APPLICATION_PROTOCOL_DEFINITION ( 'draft international standard', 'automotive_design', 1998, #89 ) ;
#196 = LINE ( 'NONE', #298, #164 ) ;
#197 = ADVANCED_FACE ( 'NONE', ( #112 ), #142, .T. ) ;
#198 = VERTEX_POINT ( 'NONE', #174 ) ;
#199 = CARTESIAN_POINT ( 'NONE',  ( -23.50000000000000000, -1.000000000000000000, 0.5000000000000001110 ) ) ;
#200 = SURFACE_STYLE_FILL_AREA ( #3 ) ;
#201 = LINE ( 'NONE', #95, #46 ) ;
#202 = UNCERTAINTY_MEASURE_WITH_UNIT (LENGTH_MEASURE( 1.000000000000000082E-05 ), #316, 'distance_accuracy_value', 'NONE');
#203 = LINE ( 'NONE', #199, #40 ) ;
#204 = AXIS2_PLACEMENT_3D ( 'NONE', #289, #88, #45 ) ;
#205 = ORIENTED_EDGE ( 'NONE', *, *, #318, .T. ) ;
#206 = LINE ( 'NONE', #227, #231 ) ;
#207 = ORIENTED_EDGE ( 'NONE', *, *, #11, .F. ) ;
#208 = PRODUCT_DEFINITION_SHAPE ( 'NONE', 'NONE',  #284 ) ;
#209 = CARTESIAN_POINT ( 'NONE',  ( 23.50000000000000000, -0.9375000000000000000, 0.000000000000000000 ) ) ;
#210 = EDGE_CURVE ( 'NONE', #22, #102, #63, .T. ) ;
#211 = ORIENTED_EDGE ( 'NONE', *, *, #221, .T. ) ;
#212 =( LENGTH_UNIT ( ) NAMED_UNIT ( * ) SI_UNIT ( $, .METRE. ) );
#213 = EDGE_LOOP ( 'NONE', ( #71, #179, #317, #236 ) ) ;
#214 = CARTESIAN_POINT ( 'NONE',  ( -23.50000000000000000, -0.9375000000000000000, 0.000000000000000000 ) ) ;
#215 = PRESENTATION_LAYER_ASSIGNMENT (  '', '', ( #60 ) ) ;
#216 = ORIENTED_EDGE ( 'NONE', *, *, #339, .T. ) ;
#217 = PLANE ( 'NONE',  #91 ) ;
#218 = FACE_BOUND ( 'NONE', #320, .T. ) ;
#219 =( NAMED_UNIT ( * ) PLANE_ANGLE_UNIT ( ) SI_UNIT ( $, .RADIAN. ) );
#220 = VECTOR ( 'NONE', #187, 39.37007874015748143 ) ;
#221 = EDGE_CURVE ( 'NONE', #50, #181, #283, .T. ) ;
#222 = EDGE_CURVE ( 'NONE', #338, #122, #115, .T. ) ;
#223 = DIRECTION ( 'NONE',  ( 0.000000000000000000, 0.000000000000000000, 1.000000000000000000 ) ) ;
#224 = FILL_AREA_STYLE ('',( #253 ) ) ;
#225 = DIRECTION ( 'NONE',  ( 0.000000000000000000, -1.000000000000000000, 0.000000000000000000 ) ) ;
#226 = APPLICATION_CONTEXT ( 'automotive_design' ) ;
#227 = CARTESIAN_POINT ( 'NONE',  ( 23.50000000000000000, -1.000000000000000000, -0.4999999999999999445 ) ) ;
#228 = CARTESIAN_POINT ( 'NONE',  ( 23.50000000000000000, 0.9374999999999998890, -0.4374999999999998890 ) ) ;
#229 = AXIS2_PLACEMENT_3D ( 'NONE', #34, #193, #82 ) ;
#230 = CARTESIAN_POINT ( 'NONE',  ( -23.50000000000000000, -0.9375000000000000000, 0.4375000000000000555 ) ) ;
#231 = VECTOR ( 'NONE', #333, 39.37007874015748143 ) ;
#232 = ORIENTED_EDGE ( 'NONE', *, *, #57, .T. ) ;
#233 = VECTOR ( 'NONE', #10, 39.37007874015748143 ) ;
#234 = CARTESIAN_POINT ( 'NONE',  ( 23.50000000000000000, -0.9375000000000000000, 0.4375000000000000555 ) ) ;
#235 = EDGE_CURVE ( 'NONE', #96, #338, #14, .T. ) ;
#236 = ORIENTED_EDGE ( 'NONE', *, *, #156, .T. ) ;
#237 = CARTESIAN_POINT ( 'NONE',  ( 23.50000000000000000, -0.9375000000000000000, -0.4374999999999998890 ) ) ;
#238 = ORIENTED_EDGE ( 'NONE', *, *, #222, .F. ) ;
#239 = DIRECTION ( 'NONE',  ( 0.000000000000000000, 0.000000000000000000, -1.000000000000000000 ) ) ;
#240 = ORIENTED_EDGE ( 'NONE', *, *, #257, .F. ) ;
#241 = CARTESIAN_POINT ( 'NONE',  ( 23.50000000000000000, 0.000000000000000000, 0.4375000000000000555 ) ) ;
#242 = VERTEX_POINT ( 'NONE', #294 ) ;
#243 = DIRECTION ( 'NONE',  ( 0.000000000000000000, -0.000000000000000000, -1.000000000000000000 ) ) ;
#244 = CARTESIAN_POINT ( 'NONE',  ( 23.50000000000000000, 0.000000000000000000, 0.000000000000000000 ) ) ;
#245 = PLANE ( 'NONE',  #176 ) ;
#246 = CARTESIAN_POINT ( 'NONE',  ( 23.50000000000000000, 0.9374999999999998890, 0.4375000000000000555 ) ) ;
#247 = PRODUCT_CONTEXT ( 'NONE', #226, 'mechanical' ) ;
#248 = ADVANCED_FACE ( 'NONE', ( #48 ), #323, .T. ) ;
#249 = EDGE_CURVE ( 'NONE', #166, #22, #100, .T. ) ;
#250 = VECTOR ( 'NONE', #79, 39.37007874015748143 ) ;
#251 = PRESENTATION_STYLE_ASSIGNMENT (( #163 ) ) ;
#252 = CARTESIAN_POINT ( 'NONE',  ( -23.50000000000000000, 0.9374999999999998890, 0.000000000000000000 ) ) ;
#253 = FILL_AREA_STYLE_COLOUR ( '', #285 ) ;
#254 = CARTESIAN_POINT ( 'NONE',  ( -23.50000000000000000, 0.000000000000000000, -0.4374999999999998890 ) ) ;
#255 = DIRECTION ( 'NONE',  ( -0.000000000000000000, 1.000000000000000000, 0.000000000000000000 ) ) ;
#256 = FACE_OUTER_BOUND ( 'NONE', #159, .T. ) ;
#257 = EDGE_CURVE ( 'NONE', #50, #96, #127, .T. ) ;
#258 = MECHANICAL_DESIGN_GEOMETRIC_PRESENTATION_REPRESENTATION (  '', ( #60 ), #101 ) ;
#259 = ORIENTED_EDGE ( 'NONE', *, *, #171, .T. ) ;
#260 = PLANE ( 'NONE',  #185 ) ;
#261 = ORIENTED_EDGE ( 'NONE', *, *, #145, .T. ) ;
#262 = VECTOR ( 'NONE', #319, 39.37007874015748143 ) ;
#263 = DIRECTION ( 'NONE',  ( 1.000000000000000000, 0.000000000000000000, -0.000000000000000000 ) ) ;
#264 = ORIENTED_EDGE ( 'NONE', *, *, #33, .F. ) ;
#265 = CARTESIAN_POINT ( 'NONE',  ( 23.50000000000000000, -1.000000000000000000, 0.5000000000000001110 ) ) ;
#266 = ORIENTED_EDGE ( 'NONE', *, *, #44, .T. ) ;
#267 = FACE_OUTER_BOUND ( 'NONE', #340, .T. ) ;
#268 = ORIENTED_EDGE ( 'NONE', *, *, #221, .F. ) ;
#269 = FACE_OUTER_BOUND ( 'NONE', #328, .T. ) ;
#270 = ORIENTED_EDGE ( 'NONE', *, *, #272, .F. ) ;
#271 = EDGE_CURVE ( 'NONE', #310, #86, #155, .T. ) ;
#272 = EDGE_CURVE ( 'NONE', #19, #288, #192, .T. ) ;
#273 = DIRECTION ( 'NONE',  ( 1.000000000000000000, 0.000000000000000000, 0.000000000000000000 ) ) ;
#274 =( GEOMETRIC_REPRESENTATION_CONTEXT ( 3 ) GLOBAL_UNCERTAINTY_ASSIGNED_CONTEXT ( ( #114 ) ) GLOBAL_UNIT_ASSIGNED_CONTEXT ( ( #1, #324, #110 ) ) REPRESENTATION_CONTEXT ( 'NONE', 'WORKASPACE' ) );
#275 = DIRECTION ( 'NONE',  ( -0.000000000000000000, -1.000000000000000000, -0.000000000000000000 ) ) ;
#276 = CARTESIAN_POINT ( 'NONE',  ( 0.000000000000000000, 0.000000000000000000, 0.000000000000000000 ) ) ;
#277 = ORIENTED_EDGE ( 'NONE', *, *, #210, .T. ) ;
#278 = DIRECTION ( 'NONE',  ( 0.000000000000000000, 0.000000000000000000, 1.000000000000000000 ) ) ;
#279 = LINE ( 'NONE', #234, #4 ) ;
#280 =( LENGTH_UNIT ( ) NAMED_UNIT ( * ) SI_UNIT ( $, .METRE. ) );
#281 = LINE ( 'NONE', #146, #233 ) ;
#282 = AXIS2_PLACEMENT_3D ( 'NONE', #12, #306, #62 ) ;
#283 = LINE ( 'NONE', #37, #325 ) ;
#284 = PRODUCT_DEFINITION ( 'UNKNOWN', '', #128, #297 ) ;
#285 = COLOUR_RGB ( '',0.8666666666666666963, 0.9098039215686274384, 1.000000000000000000 ) ;
#286 = EDGE_LOOP ( 'NONE', ( #68, #188, #343, #148 ) ) ;
#287 = DIRECTION ( 'NONE',  ( 0.000000000000000000, 0.000000000000000000, -1.000000000000000000 ) ) ;
#288 = VERTEX_POINT ( 'NONE', #103 ) ;
#289 = CARTESIAN_POINT ( 'NONE',  ( -23.50000000000000000, 0.000000000000000000, 0.000000000000000000 ) ) ;
#290 = ORIENTED_EDGE ( 'NONE', *, *, #271, .F. ) ;
#291 = VECTOR ( 'NONE', #2, 39.37007874015748143 ) ;
#292 = LENGTH_MEASURE_WITH_UNIT ( LENGTH_MEASURE( 0.02539999999999999897 ), #212 );
#293 = ORIENTED_EDGE ( 'NONE', *, *, #118, .F. ) ;
#294 = CARTESIAN_POINT ( 'NONE',  ( -23.50000000000000000, -1.000000000000000000, -0.4999999999999999445 ) ) ;
#295 = ORIENTED_EDGE ( 'NONE', *, *, #272, .T. ) ;
#296 = CARTESIAN_POINT ( 'NONE',  ( 23.50000000000000000, -1.000000000000000000, 0.5000000000000001110 ) ) ;
#297 = PRODUCT_DEFINITION_CONTEXT ( 'detailed design', #89, 'design' ) ;
#298 = CARTESIAN_POINT ( 'NONE',  ( -23.50000000000000000, 0.9999999999999998890, 0.5000000000000001110 ) ) ;
#299 = LINE ( 'NONE', #296, #136 ) ;
#300 = DIRECTION ( 'NONE',  ( 1.000000000000000000, 0.000000000000000000, 0.000000000000000000 ) ) ;
#301 = ADVANCED_FACE ( 'NONE', ( #269 ), #49, .F. ) ;
#302 = CARTESIAN_POINT ( 'NONE',  ( 23.50000000000000000, -1.000000000000000000, -0.4999999999999999445 ) ) ;
#303 = ORIENTED_EDGE ( 'NONE', *, *, #257, .T. ) ;
#304 = LINE ( 'NONE', #191, #116 ) ;
#305 = ORIENTED_EDGE ( 'NONE', *, *, #156, .F. ) ;
#306 = DIRECTION ( 'NONE',  ( 0.000000000000000000, -1.000000000000000000, 0.000000000000000000 ) ) ;
#307 = DIRECTION ( 'NONE',  ( 0.000000000000000000, 0.000000000000000000, -1.000000000000000000 ) ) ;
#308 = DIRECTION ( 'NONE',  ( 0.000000000000000000, 1.000000000000000000, 0.000000000000000000 ) ) ;
#309 = VECTOR ( 'NONE', #20, 39.37007874015748143 ) ;
#310 = VERTEX_POINT ( 'NONE', #23 ) ;
#311 = DIRECTION ( 'NONE',  ( -1.000000000000000000, -0.000000000000000000, -0.000000000000000000 ) ) ;
#312 = ORIENTED_EDGE ( 'NONE', *, *, #235, .F. ) ;
#313 = LINE ( 'NONE', #169, #173 ) ;
#314 = ORIENTED_EDGE ( 'NONE', *, *, #33, .T. ) ;
#315 = PRESENTATION_LAYER_ASSIGNMENT (  '', '', ( #13 ) ) ;
#316 =( CONVERSION_BASED_UNIT ( 'INCH', #292 ) LENGTH_UNIT ( ) NAMED_UNIT ( #28 ) );
#317 = ORIENTED_EDGE ( 'NONE', *, *, #222, .T. ) ;
#318 = EDGE_CURVE ( 'NONE', #122, #50, #25, .T. ) ;
#319 = DIRECTION ( 'NONE',  ( 0.000000000000000000, 0.000000000000000000, 1.000000000000000000 ) ) ;
#320 = EDGE_LOOP ( 'NONE', ( #134, #238, #312, #240 ) ) ;
#321 = LINE ( 'NONE', #77, #291 ) ;
#322 = EDGE_LOOP ( 'NONE', ( #61, #268, #303, #150 ) ) ;
#323 = PLANE ( 'NONE',  #18 ) ;
#324 =( NAMED_UNIT ( * ) PLANE_ANGLE_UNIT ( ) SI_UNIT ( $, .RADIAN. ) );
#325 = VECTOR ( 'NONE', #144, 39.37007874015748143 ) ;
#326 = ORIENTED_EDGE ( 'NONE', *, *, #235, .T. ) ;
#327 = CLOSED_SHELL ( 'NONE', ( #93, #183, #347, #331, #301, #58, #172, #197, #248, #132 ) ) ;
#328 = EDGE_LOOP ( 'NONE', ( #295, #336, #26, #314 ) ) ;
#329 = FACE_OUTER_BOUND ( 'NONE', #213, .T. ) ;
#330 = PRODUCT ( 'WCP-0921 Rev1', 'WCP-0921 Rev1', '', ( #247 ) ) ;
#331 = ADVANCED_FACE ( 'NONE', ( #267 ), #217, .F. ) ;
#332 = EDGE_CURVE ( 'NONE', #242, #198, #321, .T. ) ;
#333 = DIRECTION ( 'NONE',  ( -1.000000000000000000, -0.000000000000000000, -0.000000000000000000 ) ) ;
#334 = CARTESIAN_POINT ( 'NONE',  ( 23.50000000000000000, -1.000000000000000000, 0.5000000000000001110 ) ) ;
#335 = VECTOR ( 'NONE', #345, 39.37007874015748143 ) ;
#336 = ORIENTED_EDGE ( 'NONE', *, *, #339, .F. ) ;
#337 = DIRECTION ( 'NONE',  ( -1.000000000000000000, -0.000000000000000000, -0.000000000000000000 ) ) ;
#338 = VERTEX_POINT ( 'NONE', #237 ) ;
#339 = EDGE_CURVE ( 'NONE', #76, #288, #299, .T. ) ;
#340 = EDGE_LOOP ( 'NONE', ( #99, #264, #290, #120 ) ) ;
#341 = VECTOR ( 'NONE', #162, 39.37007874015748143 ) ;
#342 = CARTESIAN_POINT ( 'NONE',  ( 23.50000000000000000, 0.000000000000000000, 0.4375000000000000555 ) ) ;
#343 = ORIENTED_EDGE ( 'NONE', *, *, #154, .F. ) ;
#344 = AXIS2_PLACEMENT_3D ( 'NONE', #276, #223, #273 ) ;
#345 = DIRECTION ( 'NONE',  ( -0.000000000000000000, -1.000000000000000000, -0.000000000000000000 ) ) ;
#346 = ORIENTED_EDGE ( 'NONE', *, *, #106, .F. ) ;
#347 = ADVANCED_FACE ( 'NONE', ( #51 ), #245, .F. ) ;
ENDSEC;
END-ISO-10303-21;
