ISO-10303-21;
HEADER;
FILE_DESCRIPTION (( 'STEP AP214' ),
    '1' );
FILE_NAME ('WCP-0915 Rev1.step',
    '2023-11-30T02:17:01',
    ( '' ),
    ( '' ),
    'SwSTEP 2.0',
    'SolidWorks 2022',
    '' );
FILE_SCHEMA (( 'AUTOMOTIVE_DESIGN' ));
ENDSEC;

DATA;
#1 = CARTESIAN_POINT ( 'NONE',  ( 18.00000000000000000, 2.049181138124087132E-16, -0.2886751345948128100 ) ) ;
#2 = EDGE_CURVE ( 'NONE', #103, #193, #222, .T. ) ;
#3 = PRESENTATION_LAYER_ASSIGNMENT (  '', '', ( #145 ) ) ;
#4 = DIRECTION ( 'NONE',  ( 0.000000000000000000, 0.000000000000000000, -1.000000000000000000 ) ) ;
#5 = EDGE_CURVE ( 'NONE', #148, #234, #179, .T. ) ;
#6 = LINE ( 'NONE', #249, #55 ) ;
#7 = EDGE_CURVE ( 'NONE', #11, #34, #70, .T. ) ;
#8 = PLANE ( 'NONE',  #256 ) ;
#9 =( GEOMETRIC_REPRESENTATION_CONTEXT ( 3 ) GLOBAL_UNCERTAINTY_ASSIGNED_CONTEXT ( ( #25 ) ) GLOBAL_UNIT_ASSIGNED_CONTEXT ( ( #130, #228, #12 ) ) REPRESENTATION_CONTEXT ( 'NONE', 'WORKASPACE' ) );
#10 = DIRECTION ( 'NONE',  ( -0.000000000000000000, 1.000000000000000000, 2.365849761790802036E-16 ) ) ;
#11 = VERTEX_POINT ( 'NONE', #198 ) ;
#12 =( NAMED_UNIT ( * ) SI_UNIT ( $, .STERADIAN. ) SOLID_ANGLE_UNIT ( ) );
#13 = ORIENTED_EDGE ( 'NONE', *, *, #7, .T. ) ;
#14 =( NAMED_UNIT ( * ) SI_UNIT ( $, .STERADIAN. ) SOLID_ANGLE_UNIT ( ) );
#15 = CARTESIAN_POINT ( 'NONE',  ( -18.00000000000000000, -0.2500000000000000555, 0.1443375672974063495 ) ) ;
#16 = ORIENTED_EDGE ( 'NONE', *, *, #213, .F. ) ;
#17 =( NAMED_UNIT ( * ) PLANE_ANGLE_UNIT ( ) SI_UNIT ( $, .RADIAN. ) );
#18 = PRODUCT_RELATED_PRODUCT_CATEGORY ( 'part', '', ( #175 ) ) ;
#19 = CARTESIAN_POINT ( 'NONE',  ( -18.00000000000000000, -1.707604033161917451E-16, 0.2886751345948128100 ) ) ;
#20 = VECTOR ( 'NONE', #259, 39.37007874015748143 ) ;
#21 = ORIENTED_EDGE ( 'NONE', *, *, #204, .T. ) ;
#22 = EDGE_CURVE ( 'NONE', #131, #190, #122, .T. ) ;
#23 = CARTESIAN_POINT ( 'NONE',  ( 18.00000000000000000, -1.707604033161917451E-16, 0.2886751345948128100 ) ) ;
#24 = CARTESIAN_POINT ( 'NONE',  ( -18.00000000000000000, -0.2499999999999999722, -0.1443375672974065438 ) ) ;
#25 = UNCERTAINTY_MEASURE_WITH_UNIT (LENGTH_MEASURE( 1.000000000000000082E-05 ), #130, 'distance_accuracy_value', 'NONE');
#26 = STYLED_ITEM ( 'NONE', ( #62 ), #155 ) ;
#27 = LINE ( 'NONE', #174, #177 ) ;
#28 = CARTESIAN_POINT ( 'NONE',  ( -18.00000000000000000, 0.2500000000000000000, 0.1443375672974064883 ) ) ;
#29 = EDGE_CURVE ( 'NONE', #90, #148, #49, .T. ) ;
#30 = DIRECTION ( 'NONE',  ( 0.000000000000000000, -0.8660254037844389297, 0.4999999999999995559 ) ) ;
#31 = VECTOR ( 'NONE', #264, 39.37007874015748854 ) ;
#32 = CARTESIAN_POINT ( 'NONE',  ( 18.00000000000000000, 0.2500000000000000555, -0.1443375672974064050 ) ) ;
#33 = COLOUR_RGB ( '',0.2980392156862745057, 0.2980392156862745057, 0.2980392156862745057 ) ;
#34 = VERTEX_POINT ( 'NONE', #91 ) ;
#35 = FILL_AREA_STYLE ('',( #269 ) ) ;
#36 = SURFACE_SIDE_STYLE ('',( #265 ) ) ;
#37 = ORIENTED_EDGE ( 'NONE', *, *, #95, .F. ) ;
#38 =( GEOMETRIC_REPRESENTATION_CONTEXT ( 3 ) GLOBAL_UNCERTAINTY_ASSIGNED_CONTEXT ( ( #227 ) ) GLOBAL_UNIT_ASSIGNED_CONTEXT ( ( #86, #17, #14 ) ) REPRESENTATION_CONTEXT ( 'NONE', 'WORKASPACE' ) );
#39 = ORIENTED_EDGE ( 'NONE', *, *, #5, .T. ) ;
#40 = APPLICATION_PROTOCOL_DEFINITION ( 'draft international standard', 'automotive_design', 1998, #225 ) ;
#41 = EDGE_CURVE ( 'NONE', #148, #69, #27, .T. ) ;
#42 = ORIENTED_EDGE ( 'NONE', *, *, #56, .T. ) ;
#43 = CARTESIAN_POINT ( 'NONE',  ( 18.00000000000000000, 0.2500000000000000555, -0.1443375672974064050 ) ) ;
#44 =( LENGTH_UNIT ( ) NAMED_UNIT ( * ) SI_UNIT ( $, .METRE. ) );
#45 = PLANE ( 'NONE',  #98 ) ;
#46 = DIRECTION ( 'NONE',  ( 0.000000000000000000, -0.8660254037844389297, 0.4999999999999995559 ) ) ;
#47 = PRODUCT_DEFINITION ( 'UNKNOWN', '', #127, #184 ) ;
#48 = MECHANICAL_DESIGN_GEOMETRIC_PRESENTATION_REPRESENTATION (  '', ( #145 ), #38 ) ;
#49 = LINE ( 'NONE', #237, #120 ) ;
#50 = LINE ( 'NONE', #274, #89 ) ;
#51 = DIMENSIONAL_EXPONENTS ( 1.000000000000000000, 0.000000000000000000, 0.000000000000000000, 0.000000000000000000, 0.000000000000000000, 0.000000000000000000, 0.000000000000000000 ) ;
#52 = PLANE ( 'NONE',  #142 ) ;
#53 = LINE ( 'NONE', #121, #126 ) ;
#54 = LINE ( 'NONE', #28, #277 ) ;
#55 = VECTOR ( 'NONE', #61, 39.37007874015748143 ) ;
#56 = EDGE_CURVE ( 'NONE', #234, #128, #178, .T. ) ;
#57 = EDGE_CURVE ( 'NONE', #69, #128, #219, .T. ) ;
#58 = LENGTH_MEASURE_WITH_UNIT ( LENGTH_MEASURE( 0.02539999999999999897 ), #164 );
#59 = FACE_OUTER_BOUND ( 'NONE', #85, .T. ) ;
#60 = CARTESIAN_POINT ( 'NONE',  ( 18.00000000000000000, -1.707604033161917451E-16, 0.2886751345948128100 ) ) ;
#61 = DIRECTION ( 'NONE',  ( 0.000000000000000000, 2.365849761790802036E-16, -1.000000000000000000 ) ) ;
#62 = PRESENTATION_STYLE_ASSIGNMENT (( #83 ) ) ;
#63 = ORIENTED_EDGE ( 'NONE', *, *, #253, .F. ) ;
#64 = EDGE_LOOP ( 'NONE', ( #13, #273, #169, #112 ) ) ;
#65 = ADVANCED_FACE ( 'NONE', ( #262 ), #161, .T. ) ;
#66 =( NAMED_UNIT ( * ) PLANE_ANGLE_UNIT ( ) SI_UNIT ( $, .RADIAN. ) );
#67 = AXIS2_PLACEMENT_3D ( 'NONE', #123, #226, #108 ) ;
#68 = EDGE_LOOP ( 'NONE', ( #21, #16, #217, #42 ) ) ;
#69 = VERTEX_POINT ( 'NONE', #74 ) ;
#70 = LINE ( 'NONE', #24, #157 ) ;
#71 = DIMENSIONAL_EXPONENTS ( 1.000000000000000000, 0.000000000000000000, 0.000000000000000000, 0.000000000000000000, 0.000000000000000000, 0.000000000000000000, 0.000000000000000000 ) ;
#72 = CARTESIAN_POINT ( 'NONE',  ( 18.00000000000000000, -0.2499999999999999722, -0.1443375672974065438 ) ) ;
#73 = AXIS2_PLACEMENT_3D ( 'NONE', #75, #240, #220 ) ;
#74 = CARTESIAN_POINT ( 'NONE',  ( -18.00000000000000000, -1.707604033161917451E-16, 0.2886751345948128100 ) ) ;
#75 = CARTESIAN_POINT ( 'NONE',  ( 18.00000000000000000, 0.000000000000000000, 0.000000000000000000 ) ) ;
#76 = ADVANCED_FACE ( 'NONE', ( #238 ), #221, .F. ) ;
#77 = CARTESIAN_POINT ( 'NONE',  ( 18.00000000000000000, -1.707604033161917451E-16, 0.2886751345948128100 ) ) ;
#78 = DIRECTION ( 'NONE',  ( -1.000000000000000000, -0.000000000000000000, -0.000000000000000000 ) ) ;
#79 = LINE ( 'NONE', #32, #172 ) ;
#80 = ORIENTED_EDGE ( 'NONE', *, *, #107, .T. ) ;
#81 = DIRECTION ( 'NONE',  ( 0.000000000000000000, -0.5000000000000001110, 0.8660254037844385966 ) ) ;
#82 = SURFACE_SIDE_STYLE ('',( #233 ) ) ;
#83 = SURFACE_STYLE_USAGE ( .BOTH. , #36 ) ;
#84 = ADVANCED_FACE ( 'NONE', ( #159 ), #52, .F. ) ;
#85 = EDGE_LOOP ( 'NONE', ( #132, #151, #236, #231 ) ) ;
#86 =( CONVERSION_BASED_UNIT ( 'INCH', #218 ) LENGTH_UNIT ( ) NAMED_UNIT ( #104 ) );
#87 = FACE_OUTER_BOUND ( 'NONE', #64, .T. ) ;
#88 = SHAPE_DEFINITION_REPRESENTATION ( #275, #140 ) ;
#89 = VECTOR ( 'NONE', #92, 39.37007874015748143 ) ;
#90 = VERTEX_POINT ( 'NONE', #119 ) ;
#91 = CARTESIAN_POINT ( 'NONE',  ( -18.00000000000000000, 2.049181138124087132E-16, -0.2886751345948128100 ) ) ;
#92 = DIRECTION ( 'NONE',  ( -1.000000000000000000, -0.000000000000000000, -0.000000000000000000 ) ) ;
#93 = DIRECTION ( 'NONE',  ( 0.000000000000000000, 0.8660254037844389297, -0.4999999999999993894 ) ) ;
#94 = VECTOR ( 'NONE', #272, 39.37007874015748143 ) ;
#95 = EDGE_CURVE ( 'NONE', #190, #103, #200, .T. ) ;
#96 = DIRECTION ( 'NONE',  ( 0.000000000000000000, 0.8660254037844384856, 0.5000000000000001110 ) ) ;
#97 = EDGE_CURVE ( 'NONE', #34, #193, #99, .T. ) ;
#98 = AXIS2_PLACEMENT_3D ( 'NONE', #150, #136, #111 ) ;
#99 = LINE ( 'NONE', #182, #31 ) ;
#100 = LINE ( 'NONE', #183, #207 ) ;
#101 = CARTESIAN_POINT ( 'NONE',  ( 18.00000000000000000, 2.049181138124087132E-16, -0.2886751345948128100 ) ) ;
#102 = CARTESIAN_POINT ( 'NONE',  ( 18.00000000000000000, 2.049181138124087132E-16, -0.2886751345948128100 ) ) ;
#103 = VERTEX_POINT ( 'NONE', #43 ) ;
#104 = DIMENSIONAL_EXPONENTS ( 1.000000000000000000, 0.000000000000000000, 0.000000000000000000, 0.000000000000000000, 0.000000000000000000, 0.000000000000000000, 0.000000000000000000 ) ;
#105 = DIRECTION ( 'NONE',  ( -1.000000000000000000, -0.000000000000000000, -0.000000000000000000 ) ) ;
#106 = EDGE_LOOP ( 'NONE', ( #268, #173, #37, #154 ) ) ;
#107 = EDGE_CURVE ( 'NONE', #234, #131, #135, .T. ) ;
#108 = DIRECTION ( 'NONE',  ( 0.000000000000000000, 1.182924880895401018E-16, -1.000000000000000000 ) ) ;
#109 = MECHANICAL_DESIGN_GEOMETRIC_PRESENTATION_REPRESENTATION (  '', ( #26 ), #9 ) ;
#110 = DIRECTION ( 'NONE',  ( 0.000000000000000000, 0.000000000000000000, 1.000000000000000000 ) ) ;
#111 = DIRECTION ( 'NONE',  ( 0.000000000000000000, 0.8660254037844388186, -0.4999999999999995559 ) ) ;
#112 = ORIENTED_EDGE ( 'NONE', *, *, #213, .T. ) ;
#113 = PRODUCT_CONTEXT ( 'NONE', #225, 'mechanical' ) ;
#114 = ORIENTED_EDGE ( 'NONE', *, *, #201, .F. ) ;
#115 = CARTESIAN_POINT ( 'NONE',  ( 18.00000000000000000, -0.2500000000000000555, 0.1443375672974063495 ) ) ;
#116 = DIRECTION ( 'NONE',  ( -1.000000000000000000, -0.000000000000000000, -0.000000000000000000 ) ) ;
#117 = CARTESIAN_POINT ( 'NONE',  ( 18.00000000000000000, 0.2500000000000000555, -0.1443375672974064050 ) ) ;
#118 =( LENGTH_UNIT ( ) NAMED_UNIT ( * ) SI_UNIT ( $, .METRE. ) );
#119 = CARTESIAN_POINT ( 'NONE',  ( 18.00000000000000000, 0.2500000000000000000, 0.1443375672974064883 ) ) ;
#120 = VECTOR ( 'NONE', #46, 39.37007874015748143 ) ;
#121 = CARTESIAN_POINT ( 'NONE',  ( -18.00000000000000000, 0.2500000000000000555, -0.1443375672974064050 ) ) ;
#122 = LINE ( 'NONE', #72, #203 ) ;
#123 = CARTESIAN_POINT ( 'NONE',  ( 18.00000000000000000, 0.2500000000000000555, -0.1443375672974064050 ) ) ;
#124 = FACE_OUTER_BOUND ( 'NONE', #106, .T. ) ;
#125 = ADVANCED_FACE ( 'NONE', ( #124 ), #8, .F. ) ;
#126 = VECTOR ( 'NONE', #239, 39.37007874015748143 ) ;
#127 = PRODUCT_DEFINITION_FORMATION_WITH_SPECIFIED_SOURCE ( 'ANY', '', #175, .NOT_KNOWN. ) ;
#128 = VERTEX_POINT ( 'NONE', #15 ) ;
#129 = ORIENTED_EDGE ( 'NONE', *, *, #242, .F. ) ;
#130 =( CONVERSION_BASED_UNIT ( 'INCH', #58 ) LENGTH_UNIT ( ) NAMED_UNIT ( #71 ) );
#131 = VERTEX_POINT ( 'NONE', #245 ) ;
#132 = ORIENTED_EDGE ( 'NONE', *, *, #242, .T. ) ;
#133 = CARTESIAN_POINT ( 'NONE',  ( 18.00000000000000000, -0.2500000000000000555, 0.1443375672974063495 ) ) ;
#134 = ORIENTED_EDGE ( 'NONE', *, *, #22, .T. ) ;
#135 = LINE ( 'NONE', #115, #94 ) ;
#136 = DIRECTION ( 'NONE',  ( 0.000000000000000000, -0.4999999999999996114, -0.8660254037844389297 ) ) ;
#137 = COLOUR_RGB ( '',0.2980392156862745057, 0.2980392156862745057, 0.2980392156862745057 ) ;
#138 = CARTESIAN_POINT ( 'NONE',  ( 18.00000000000000000, -0.2500000000000000555, 0.1443375672974063495 ) ) ;
#139 = ORIENTED_EDGE ( 'NONE', *, *, #41, .T. ) ;
#140 = ADVANCED_BREP_SHAPE_REPRESENTATION ( 'WCP-0915 Rev1', ( #155, #251 ), #260 ) ;
#141 = DIRECTION ( 'NONE',  ( 1.000000000000000000, -0.000000000000000000, 0.000000000000000000 ) ) ;
#142 = AXIS2_PLACEMENT_3D ( 'NONE', #199, #141, #4 ) ;
#143 = DIRECTION ( 'NONE',  ( -1.000000000000000000, -0.000000000000000000, -0.000000000000000000 ) ) ;
#144 = VECTOR ( 'NONE', #224, 39.37007874015748143 ) ;
#145 = STYLED_ITEM ( 'NONE', ( #215 ), #140 ) ;
#146 = ADVANCED_FACE ( 'NONE', ( #248 ), #186, .F. ) ;
#147 = UNCERTAINTY_MEASURE_WITH_UNIT (LENGTH_MEASURE( 1.000000000000000082E-05 ), #181, 'distance_accuracy_value', 'NONE');
#148 = VERTEX_POINT ( 'NONE', #60 ) ;
#149 = SURFACE_STYLE_USAGE ( .BOTH. , #82 ) ;
#150 = CARTESIAN_POINT ( 'NONE',  ( 18.00000000000000000, 0.2500000000000000000, 0.1443375672974064883 ) ) ;
#151 = ORIENTED_EDGE ( 'NONE', *, *, #41, .F. ) ;
#152 = AXIS2_PLACEMENT_3D ( 'NONE', #187, #10, #211 ) ;
#153 = ORIENTED_EDGE ( 'NONE', *, *, #2, .T. ) ;
#154 = ORIENTED_EDGE ( 'NONE', *, *, #162, .T. ) ;
#155 = MANIFOLD_SOLID_BREP ( 'Boss-Extrude1', #235 ) ;
#156 = DIRECTION ( 'NONE',  ( 0.000000000000000000, 0.8660254037844389297, -0.4999999999999993894 ) ) ;
#157 = VECTOR ( 'NONE', #156, 39.37007874015748143 ) ;
#158 = DIRECTION ( 'NONE',  ( 0.000000000000000000, -0.8660254037844383745, -0.5000000000000003331 ) ) ;
#159 = FACE_OUTER_BOUND ( 'NONE', #257, .T. ) ;
#160 = ORIENTED_EDGE ( 'NONE', *, *, #5, .F. ) ;
#161 = PLANE ( 'NONE',  #73 ) ;
#162 = EDGE_CURVE ( 'NONE', #190, #34, #209, .T. ) ;
#163 = CARTESIAN_POINT ( 'NONE',  ( 18.00000000000000000, 2.049181138124087132E-16, -0.2886751345948128100 ) ) ;
#164 =( LENGTH_UNIT ( ) NAMED_UNIT ( * ) SI_UNIT ( $, .METRE. ) );
#165 = ORIENTED_EDGE ( 'NONE', *, *, #57, .F. ) ;
#166 = VECTOR ( 'NONE', #158, 39.37007874015748143 ) ;
#167 = DIRECTION ( 'NONE',  ( 0.000000000000000000, -0.8660254037844385966, -0.5000000000000001110 ) ) ;
#168 = ORIENTED_EDGE ( 'NONE', *, *, #56, .F. ) ;
#169 = ORIENTED_EDGE ( 'NONE', *, *, #22, .F. ) ;
#170 = CARTESIAN_POINT ( 'NONE',  ( 0.000000000000000000, 0.000000000000000000, 0.000000000000000000 ) ) ;
#171 = PLANE ( 'NONE',  #212 ) ;
#172 = VECTOR ( 'NONE', #206, 39.37007874015748143 ) ;
#173 = ORIENTED_EDGE ( 'NONE', *, *, #2, .F. ) ;
#174 = CARTESIAN_POINT ( 'NONE',  ( 18.00000000000000000, -1.707604033161917451E-16, 0.2886751345948128100 ) ) ;
#175 = PRODUCT ( 'WCP-0915 Rev1', 'WCP-0915 Rev1', '', ( #113 ) ) ;
#176 = ORIENTED_EDGE ( 'NONE', *, *, #97, .F. ) ;
#177 = VECTOR ( 'NONE', #143, 39.37007874015748143 ) ;
#178 = LINE ( 'NONE', #138, #144 ) ;
#179 = LINE ( 'NONE', #77, #20 ) ;
#180 = DIRECTION ( 'NONE',  ( -0.000000000000000000, 0.4999999999999994449, 0.8660254037844390407 ) ) ;
#181 =( CONVERSION_BASED_UNIT ( 'INCH', #202 ) LENGTH_UNIT ( ) NAMED_UNIT ( #51 ) );
#182 = CARTESIAN_POINT ( 'NONE',  ( -18.00000000000000000, 2.049181138124087132E-16, -0.2886751345948128100 ) ) ;
#183 = CARTESIAN_POINT ( 'NONE',  ( 18.00000000000000000, -0.2499999999999999722, -0.1443375672974065438 ) ) ;
#184 = PRODUCT_DEFINITION_CONTEXT ( 'detailed design', #189, 'design' ) ;
#185 = VECTOR ( 'NONE', #105, 39.37007874015748143 ) ;
#186 = PLANE ( 'NONE',  #152 ) ;
#187 = CARTESIAN_POINT ( 'NONE',  ( 18.00000000000000000, -0.2500000000000000555, 0.1443375672974063495 ) ) ;
#188 = VERTEX_POINT ( 'NONE', #208 ) ;
#189 = APPLICATION_CONTEXT ( 'automotive_design' ) ;
#190 = VERTEX_POINT ( 'NONE', #102 ) ;
#191 = CARTESIAN_POINT ( 'NONE',  ( -18.00000000000000000, 0.2500000000000000555, -0.1443375672974064050 ) ) ;
#192 = ADVANCED_FACE ( 'NONE', ( #267 ), #230, .F. ) ;
#193 = VERTEX_POINT ( 'NONE', #191 ) ;
#194 = APPLICATION_PROTOCOL_DEFINITION ( 'draft international standard', 'automotive_design', 1998, #189 ) ;
#195 = ORIENTED_EDGE ( 'NONE', *, *, #201, .T. ) ;
#196 = DIRECTION ( 'NONE',  ( 1.000000000000000000, 0.000000000000000000, 0.000000000000000000 ) ) ;
#197 = EDGE_LOOP ( 'NONE', ( #250, #168, #160, #139 ) ) ;
#198 = CARTESIAN_POINT ( 'NONE',  ( -18.00000000000000000, -0.2499999999999999722, -0.1443375672974065438 ) ) ;
#199 = CARTESIAN_POINT ( 'NONE',  ( -18.00000000000000000, 0.000000000000000000, 0.000000000000000000 ) ) ;
#200 = LINE ( 'NONE', #1, #229 ) ;
#201 = EDGE_CURVE ( 'NONE', #103, #90, #79, .T. ) ;
#202 = LENGTH_MEASURE_WITH_UNIT ( LENGTH_MEASURE( 0.02539999999999999897 ), #118 );
#203 = VECTOR ( 'NONE', #93, 39.37007874015748143 ) ;
#204 = EDGE_CURVE ( 'NONE', #128, #11, #6, .T. ) ;
#205 = DIRECTION ( 'NONE',  ( 0.000000000000000000, 0.5000000000000003331, -0.8660254037844385966 ) ) ;
#206 = DIRECTION ( 'NONE',  ( 0.000000000000000000, -1.182924880895401018E-16, 1.000000000000000000 ) ) ;
#207 = VECTOR ( 'NONE', #78, 39.37007874015748143 ) ;
#208 = CARTESIAN_POINT ( 'NONE',  ( -18.00000000000000000, 0.2500000000000000000, 0.1443375672974064883 ) ) ;
#209 = LINE ( 'NONE', #163, #185 ) ;
#210 =( NAMED_UNIT ( * ) SI_UNIT ( $, .STERADIAN. ) SOLID_ANGLE_UNIT ( ) );
#211 = DIRECTION ( 'NONE',  ( 0.000000000000000000, -2.365849761790802036E-16, 1.000000000000000000 ) ) ;
#212 = AXIS2_PLACEMENT_3D ( 'NONE', #216, #180, #244 ) ;
#213 = EDGE_CURVE ( 'NONE', #131, #11, #100, .T. ) ;
#214 = EDGE_LOOP ( 'NONE', ( #243, #63, #114, #153 ) ) ;
#215 = PRESENTATION_STYLE_ASSIGNMENT (( #149 ) ) ;
#216 = CARTESIAN_POINT ( 'NONE',  ( 18.00000000000000000, -0.2499999999999999722, -0.1443375672974065438 ) ) ;
#217 = ORIENTED_EDGE ( 'NONE', *, *, #107, .F. ) ;
#218 = LENGTH_MEASURE_WITH_UNIT ( LENGTH_MEASURE( 0.02539999999999999897 ), #44 );
#219 = LINE ( 'NONE', #19, #166 ) ;
#220 = DIRECTION ( 'NONE',  ( 0.000000000000000000, 0.000000000000000000, -1.000000000000000000 ) ) ;
#221 = PLANE ( 'NONE',  #266 ) ;
#222 = LINE ( 'NONE', #117, #223 ) ;
#223 = VECTOR ( 'NONE', #116, 39.37007874015748143 ) ;
#224 = DIRECTION ( 'NONE',  ( -1.000000000000000000, -0.000000000000000000, -0.000000000000000000 ) ) ;
#225 = APPLICATION_CONTEXT ( 'automotive_design' ) ;
#226 = DIRECTION ( 'NONE',  ( 0.000000000000000000, -1.000000000000000000, -1.182924880895401018E-16 ) ) ;
#227 = UNCERTAINTY_MEASURE_WITH_UNIT (LENGTH_MEASURE( 1.000000000000000082E-05 ), #86, 'distance_accuracy_value', 'NONE');
#228 =( NAMED_UNIT ( * ) PLANE_ANGLE_UNIT ( ) SI_UNIT ( $, .RADIAN. ) );
#229 = VECTOR ( 'NONE', #96, 39.37007874015748854 ) ;
#230 = PLANE ( 'NONE',  #67 ) ;
#231 = ORIENTED_EDGE ( 'NONE', *, *, #253, .T. ) ;
#232 = ADVANCED_FACE ( 'NONE', ( #59 ), #45, .F. ) ;
#233 = SURFACE_STYLE_FILL_AREA ( #35 ) ;
#234 = VERTEX_POINT ( 'NONE', #133 ) ;
#235 = CLOSED_SHELL ( 'NONE', ( #241, #125, #192, #232, #76, #146, #65, #84 ) ) ;
#236 = ORIENTED_EDGE ( 'NONE', *, *, #29, .F. ) ;
#237 = CARTESIAN_POINT ( 'NONE',  ( 18.00000000000000000, 0.2500000000000000000, 0.1443375672974064883 ) ) ;
#238 = FACE_OUTER_BOUND ( 'NONE', #197, .T. ) ;
#239 = DIRECTION ( 'NONE',  ( 0.000000000000000000, -1.182924880895401018E-16, 1.000000000000000000 ) ) ;
#240 = DIRECTION ( 'NONE',  ( 1.000000000000000000, -0.000000000000000000, 0.000000000000000000 ) ) ;
#241 = ADVANCED_FACE ( 'NONE', ( #87 ), #171, .F. ) ;
#242 = EDGE_CURVE ( 'NONE', #188, #69, #54, .T. ) ;
#243 = ORIENTED_EDGE ( 'NONE', *, *, #261, .T. ) ;
#244 = DIRECTION ( 'NONE',  ( 0.000000000000000000, -0.8660254037844389297, 0.4999999999999993894 ) ) ;
#245 = CARTESIAN_POINT ( 'NONE',  ( 18.00000000000000000, -0.2499999999999999722, -0.1443375672974065438 ) ) ;
#246 = PRESENTATION_LAYER_ASSIGNMENT (  '', '', ( #26 ) ) ;
#247 = FILL_AREA_STYLE ('',( #252 ) ) ;
#248 = FACE_OUTER_BOUND ( 'NONE', #68, .T. ) ;
#249 = CARTESIAN_POINT ( 'NONE',  ( -18.00000000000000000, -0.2500000000000000555, 0.1443375672974063495 ) ) ;
#250 = ORIENTED_EDGE ( 'NONE', *, *, #57, .T. ) ;
#251 = AXIS2_PLACEMENT_3D ( 'NONE', #170, #110, #196 ) ;
#252 = FILL_AREA_STYLE_COLOUR ( '', #33 ) ;
#253 = EDGE_CURVE ( 'NONE', #90, #188, #50, .T. ) ;
#254 = ORIENTED_EDGE ( 'NONE', *, *, #204, .F. ) ;
#255 = EDGE_LOOP ( 'NONE', ( #134, #271, #195, #270, #39, #80 ) ) ;
#256 = AXIS2_PLACEMENT_3D ( 'NONE', #101, #81, #167 ) ;
#257 = EDGE_LOOP ( 'NONE', ( #276, #254, #165, #129, #258, #176 ) ) ;
#258 = ORIENTED_EDGE ( 'NONE', *, *, #261, .F. ) ;
#259 = DIRECTION ( 'NONE',  ( 0.000000000000000000, -0.8660254037844383745, -0.5000000000000003331 ) ) ;
#260 =( GEOMETRIC_REPRESENTATION_CONTEXT ( 3 ) GLOBAL_UNCERTAINTY_ASSIGNED_CONTEXT ( ( #147 ) ) GLOBAL_UNIT_ASSIGNED_CONTEXT ( ( #181, #66, #210 ) ) REPRESENTATION_CONTEXT ( 'NONE', 'WORKASPACE' ) );
#261 = EDGE_CURVE ( 'NONE', #193, #188, #53, .T. ) ;
#262 = FACE_OUTER_BOUND ( 'NONE', #255, .T. ) ;
#263 = DIRECTION ( 'NONE',  ( 0.000000000000000000, 0.8660254037844384856, 0.5000000000000002220 ) ) ;
#264 = DIRECTION ( 'NONE',  ( 0.000000000000000000, 0.8660254037844384856, 0.5000000000000001110 ) ) ;
#265 = SURFACE_STYLE_FILL_AREA ( #247 ) ;
#266 = AXIS2_PLACEMENT_3D ( 'NONE', #23, #205, #263 ) ;
#267 = FACE_OUTER_BOUND ( 'NONE', #214, .T. ) ;
#268 = ORIENTED_EDGE ( 'NONE', *, *, #97, .T. ) ;
#269 = FILL_AREA_STYLE_COLOUR ( '', #137 ) ;
#270 = ORIENTED_EDGE ( 'NONE', *, *, #29, .T. ) ;
#271 = ORIENTED_EDGE ( 'NONE', *, *, #95, .T. ) ;
#272 = DIRECTION ( 'NONE',  ( 0.000000000000000000, 2.365849761790802036E-16, -1.000000000000000000 ) ) ;
#273 = ORIENTED_EDGE ( 'NONE', *, *, #162, .F. ) ;
#274 = CARTESIAN_POINT ( 'NONE',  ( 18.00000000000000000, 0.2500000000000000000, 0.1443375672974064883 ) ) ;
#275 = PRODUCT_DEFINITION_SHAPE ( 'NONE', 'NONE',  #47 ) ;
#276 = ORIENTED_EDGE ( 'NONE', *, *, #7, .F. ) ;
#277 = VECTOR ( 'NONE', #30, 39.37007874015748143 ) ;
ENDSEC;
END-ISO-10303-21;
