ISO-10303-21;
HEADER;
FILE_DESCRIPTION (( 'STEP AP214' ),
    '1' );
FILE_NAME ('WCP-0913.STEP',
    '2023-10-06T01:16:09',
    ( '' ),
    ( '' ),
    'SwSTEP 2.0',
    'SolidWorks 2022',
    '' );
FILE_SCHEMA (( 'AUTOMOTIVE_DESIGN' ));
ENDSEC;

DATA;
#1 = ORIENTED_EDGE ( 'NONE', *, *, #174, .T. ) ;
#2 = ADVANCED_FACE ( 'NONE', ( #131 ), #176, .T. ) ;
#3 = ORIENTED_EDGE ( 'NONE', *, *, #102, .F. ) ;
#4 = PRESENTATION_STYLE_ASSIGNMENT (( #172 ) ) ;
#5 = EDGE_LOOP ( 'NONE', ( #185, #66 ) ) ;
#6 = APPLICATION_CONTEXT ( 'automotive_design' ) ;
#7 = DIMENSIONAL_EXPONENTS ( 1.000000000000000000, 0.000000000000000000, 0.000000000000000000, 0.000000000000000000, 0.000000000000000000, 0.000000000000000000, 0.000000000000000000 ) ;
#8 = MECHANICAL_DESIGN_GEOMETRIC_PRESENTATION_REPRESENTATION (  '', ( #166 ), #42 ) ;
#9 = FILL_AREA_STYLE_COLOUR ( '', #144 ) ;
#10 = CARTESIAN_POINT ( 'NONE',  ( -18.00000000000000000, 0.000000000000000000, 0.000000000000000000 ) ) ;
#11 = LENGTH_MEASURE_WITH_UNIT ( LENGTH_MEASURE( 0.02539999999999999897 ), #214 );
#12 = DIRECTION ( 'NONE',  ( 0.000000000000000000, 0.000000000000000000, 1.000000000000000000 ) ) ;
#13 = VECTOR ( 'NONE', #116, 39.37007874015748143 ) ;
#14 = SHAPE_DEFINITION_REPRESENTATION ( #110, #48 ) ;
#15 = VECTOR ( 'NONE', #19, 39.37007874015748143 ) ;
#16 = PRODUCT_CONTEXT ( 'NONE', #6, 'mechanical' ) ;
#17 = CARTESIAN_POINT ( 'NONE',  ( 18.00000000000000000, 0.000000000000000000, 0.09800000000000000377 ) ) ;
#18 = ORIENTED_EDGE ( 'NONE', *, *, #174, .F. ) ;
#19 = DIRECTION ( 'NONE',  ( -1.000000000000000000, -0.000000000000000000, -0.000000000000000000 ) ) ;
#20 = ORIENTED_EDGE ( 'NONE', *, *, #69, .F. ) ;
#21 = SURFACE_SIDE_STYLE ('',( #158 ) ) ;
#22 = ORIENTED_EDGE ( 'NONE', *, *, #45, .T. ) ;
#23 = DIRECTION ( 'NONE',  ( 1.000000000000000000, 0.000000000000000000, 0.000000000000000000 ) ) ;
#24 = EDGE_LOOP ( 'NONE', ( #1, #142, #39, #118 ) ) ;
#25 = AXIS2_PLACEMENT_3D ( 'NONE', #177, #217, #97 ) ;
#26 = DIRECTION ( 'NONE',  ( 0.000000000000000000, 0.000000000000000000, -1.000000000000000000 ) ) ;
#27 =( CONVERSION_BASED_UNIT ( 'INCH', #149 ) LENGTH_UNIT ( ) NAMED_UNIT ( #7 ) );
#28 = ORIENTED_EDGE ( 'NONE', *, *, #123, .T. ) ;
#29 = CIRCLE ( 'NONE', #98, 0.09800000000000000377 ) ;
#30 = PRODUCT_DEFINITION ( 'UNKNOWN', '', #205, #83 ) ;
#31 = AXIS2_PLACEMENT_3D ( 'NONE', #192, #78, #145 ) ;
#32 = CYLINDRICAL_SURFACE ( 'NONE', #153, 0.2494999999999999996 ) ;
#33 = AXIS2_PLACEMENT_3D ( 'NONE', #109, #171, #93 ) ;
#34 = EDGE_CURVE ( 'NONE', #128, #88, #89, .T. ) ;
#35 = FACE_OUTER_BOUND ( 'NONE', #5, .T. ) ;
#36 = EDGE_LOOP ( 'NONE', ( #3, #53, #100, #215 ) ) ;
#37 =( CONVERSION_BASED_UNIT ( 'INCH', #188 ) LENGTH_UNIT ( ) NAMED_UNIT ( #189 ) );
#38 = DIMENSIONAL_EXPONENTS ( 1.000000000000000000, 0.000000000000000000, 0.000000000000000000, 0.000000000000000000, 0.000000000000000000, 0.000000000000000000, 0.000000000000000000 ) ;
#39 = ORIENTED_EDGE ( 'NONE', *, *, #123, .F. ) ;
#40 = DIRECTION ( 'NONE',  ( 1.000000000000000000, 0.000000000000000000, 0.000000000000000000 ) ) ;
#41 = DIRECTION ( 'NONE',  ( 1.000000000000000000, 0.000000000000000000, 0.000000000000000000 ) ) ;
#42 =( GEOMETRIC_REPRESENTATION_CONTEXT ( 3 ) GLOBAL_UNCERTAINTY_ASSIGNED_CONTEXT ( ( #165 ) ) GLOBAL_UNIT_ASSIGNED_CONTEXT ( ( #195, #103, #203 ) ) REPRESENTATION_CONTEXT ( 'NONE', 'WORKASPACE' ) );
#43 = ORIENTED_EDGE ( 'NONE', *, *, #108, .F. ) ;
#44 = AXIS2_PLACEMENT_3D ( 'NONE', #96, #162, #12 ) ;
#45 = EDGE_CURVE ( 'NONE', #90, #169, #94, .T. ) ;
#46 = ORIENTED_EDGE ( 'NONE', *, *, #67, .F. ) ;
#47 = ORIENTED_EDGE ( 'NONE', *, *, #184, .F. ) ;
#48 = ADVANCED_BREP_SHAPE_REPRESENTATION ( 'WCP-0913', ( #140, #113 ), #85 ) ;
#49 = CARTESIAN_POINT ( 'NONE',  ( 18.00000000000000000, 3.055493763872646265E-17, -0.2494999999999999996 ) ) ;
#50 = LINE ( 'NONE', #204, #15 ) ;
#51 = EDGE_LOOP ( 'NONE', ( #20, #46 ) ) ;
#52 =( NAMED_UNIT ( * ) PLANE_ANGLE_UNIT ( ) SI_UNIT ( $, .RADIAN. ) );
#53 = ORIENTED_EDGE ( 'NONE', *, *, #190, .F. ) ;
#54 = COLOUR_RGB ( '',0.2980392156862745057, 0.2980392156862745057, 0.2980392156862745057 ) ;
#55 = VERTEX_POINT ( 'NONE', #62 ) ;
#56 =( GEOMETRIC_REPRESENTATION_CONTEXT ( 3 ) GLOBAL_UNCERTAINTY_ASSIGNED_CONTEXT ( ( #219 ) ) GLOBAL_UNIT_ASSIGNED_CONTEXT ( ( #37, #52, #72 ) ) REPRESENTATION_CONTEXT ( 'NONE', 'WORKASPACE' ) );
#57 = FACE_OUTER_BOUND ( 'NONE', #51, .T. ) ;
#58 = ORIENTED_EDGE ( 'NONE', *, *, #151, .T. ) ;
#59 = LINE ( 'NONE', #173, #65 ) ;
#60 = CARTESIAN_POINT ( 'NONE',  ( -18.00000000000000000, 0.000000000000000000, 0.2494999999999999996 ) ) ;
#61 = VERTEX_POINT ( 'NONE', #60 ) ;
#62 = CARTESIAN_POINT ( 'NONE',  ( 18.00000000000000000, 1.200153863164406105E-17, -0.09800000000000000377 ) ) ;
#63 = PRESENTATION_STYLE_ASSIGNMENT (( #146 ) ) ;
#64 = AXIS2_PLACEMENT_3D ( 'NONE', #178, #41, #80 ) ;
#65 = VECTOR ( 'NONE', #196, 39.37007874015748143 ) ;
#66 = ORIENTED_EDGE ( 'NONE', *, *, #34, .T. ) ;
#67 = EDGE_CURVE ( 'NONE', #71, #61, #164, .T. ) ;
#68 = CARTESIAN_POINT ( 'NONE',  ( 18.00000000000000000, 0.000000000000000000, 0.2494999999999999996 ) ) ;
#69 = EDGE_CURVE ( 'NONE', #61, #71, #181, .T. ) ;
#70 = DIRECTION ( 'NONE',  ( 0.000000000000000000, 0.000000000000000000, 1.000000000000000000 ) ) ;
#71 = VERTEX_POINT ( 'NONE', #160 ) ;
#72 =( NAMED_UNIT ( * ) SI_UNIT ( $, .STERADIAN. ) SOLID_ANGLE_UNIT ( ) );
#73 = ORIENTED_EDGE ( 'NONE', *, *, #151, .F. ) ;
#74 =( LENGTH_UNIT ( ) NAMED_UNIT ( * ) SI_UNIT ( $, .METRE. ) );
#75 = ORIENTED_EDGE ( 'NONE', *, *, #34, .F. ) ;
#76 = CARTESIAN_POINT ( 'NONE',  ( 18.00000000000000000, 0.000000000000000000, 0.000000000000000000 ) ) ;
#77 = ADVANCED_FACE ( 'NONE', ( #147 ), #133, .F. ) ;
#78 = DIRECTION ( 'NONE',  ( 1.000000000000000000, 0.000000000000000000, 0.000000000000000000 ) ) ;
#79 = SURFACE_STYLE_FILL_AREA ( #95 ) ;
#80 = DIRECTION ( 'NONE',  ( 0.000000000000000000, 0.000000000000000000, -1.000000000000000000 ) ) ;
#81 = DIRECTION ( 'NONE',  ( 0.000000000000000000, 0.000000000000000000, -1.000000000000000000 ) ) ;
#82 = DIRECTION ( 'NONE',  ( 0.000000000000000000, 0.000000000000000000, -1.000000000000000000 ) ) ;
#83 = PRODUCT_DEFINITION_CONTEXT ( 'detailed design', #198, 'design' ) ;
#84 = VECTOR ( 'NONE', #156, 39.37007874015748143 ) ;
#85 =( GEOMETRIC_REPRESENTATION_CONTEXT ( 3 ) GLOBAL_UNCERTAINTY_ASSIGNED_CONTEXT ( ( #182 ) ) GLOBAL_UNIT_ASSIGNED_CONTEXT ( ( #27, #212, #150 ) ) REPRESENTATION_CONTEXT ( 'NONE', 'WORKASPACE' ) );
#86 = DIRECTION ( 'NONE',  ( 1.000000000000000000, 0.000000000000000000, 0.000000000000000000 ) ) ;
#87 = CARTESIAN_POINT ( 'NONE',  ( -18.00000000000000000, 0.000000000000000000, 0.000000000000000000 ) ) ;
#88 = VERTEX_POINT ( 'NONE', #68 ) ;
#89 = CIRCLE ( 'NONE', #31, 0.2494999999999999996 ) ;
#90 = VERTEX_POINT ( 'NONE', #17 ) ;
#91 = AXIS2_PLACEMENT_3D ( 'NONE', #132, #23, #191 ) ;
#92 = AXIS2_PLACEMENT_3D ( 'NONE', #136, #186, #183 ) ;
#93 = DIRECTION ( 'NONE',  ( 0.000000000000000000, 0.000000000000000000, 1.000000000000000000 ) ) ;
#94 = LINE ( 'NONE', #213, #13 ) ;
#95 = FILL_AREA_STYLE ('',( #9 ) ) ;
#96 = CARTESIAN_POINT ( 'NONE',  ( 18.00000000000000000, 0.000000000000000000, 0.000000000000000000 ) ) ;
#97 = DIRECTION ( 'NONE',  ( 0.000000000000000000, 0.000000000000000000, -1.000000000000000000 ) ) ;
#98 = AXIS2_PLACEMENT_3D ( 'NONE', #87, #122, #154 ) ;
#99 = ADVANCED_FACE ( 'NONE', ( #35, #222 ), #107, .T. ) ;
#100 = ORIENTED_EDGE ( 'NONE', *, *, #108, .T. ) ;
#101 = AXIS2_PLACEMENT_3D ( 'NONE', #10, #112, #26 ) ;
#102 = EDGE_CURVE ( 'NONE', #128, #71, #168, .T. ) ;
#103 =( NAMED_UNIT ( * ) PLANE_ANGLE_UNIT ( ) SI_UNIT ( $, .RADIAN. ) );
#104 = PRESENTATION_LAYER_ASSIGNMENT (  '', '', ( #166 ) ) ;
#105 = CARTESIAN_POINT ( 'NONE',  ( 18.00000000000000000, 0.000000000000000000, 0.000000000000000000 ) ) ;
#106 = ORIENTED_EDGE ( 'NONE', *, *, #102, .T. ) ;
#107 = PLANE ( 'NONE',  #92 ) ;
#108 = EDGE_CURVE ( 'NONE', #88, #61, #50, .T. ) ;
#109 = CARTESIAN_POINT ( 'NONE',  ( 18.00000000000000000, 0.000000000000000000, 0.000000000000000000 ) ) ;
#110 = PRODUCT_DEFINITION_SHAPE ( 'NONE', 'NONE',  #30 ) ;
#111 = PLANE ( 'NONE',  #117 ) ;
#112 = DIRECTION ( 'NONE',  ( 1.000000000000000000, 0.000000000000000000, 0.000000000000000000 ) ) ;
#113 = AXIS2_PLACEMENT_3D ( 'NONE', #119, #221, #220 ) ;
#114 = CLOSED_SHELL ( 'NONE', ( #148, #138, #99, #201, #2, #77 ) ) ;
#115 =( LENGTH_UNIT ( ) NAMED_UNIT ( * ) SI_UNIT ( $, .METRE. ) );
#116 = DIRECTION ( 'NONE',  ( -1.000000000000000000, -0.000000000000000000, -0.000000000000000000 ) ) ;
#117 = AXIS2_PLACEMENT_3D ( 'NONE', #130, #175, #81 ) ;
#118 = ORIENTED_EDGE ( 'NONE', *, *, #45, .F. ) ;
#119 = CARTESIAN_POINT ( 'NONE',  ( 0.000000000000000000, 0.000000000000000000, 0.000000000000000000 ) ) ;
#120 = FACE_OUTER_BOUND ( 'NONE', #211, .T. ) ;
#121 = CIRCLE ( 'NONE', #25, 0.09800000000000000377 ) ;
#122 = DIRECTION ( 'NONE',  ( 1.000000000000000000, 0.000000000000000000, 0.000000000000000000 ) ) ;
#123 = EDGE_CURVE ( 'NONE', #169, #187, #208, .T. ) ;
#124 = ORIENTED_EDGE ( 'NONE', *, *, #129, .F. ) ;
#125 = CYLINDRICAL_SURFACE ( 'NONE', #33, 0.09800000000000000377 ) ;
#126 = FILL_AREA_STYLE ('',( #141 ) ) ;
#127 = STYLED_ITEM ( 'NONE', ( #4 ), #140 ) ;
#128 = VERTEX_POINT ( 'NONE', #49 ) ;
#129 = EDGE_CURVE ( 'NONE', #187, #169, #29, .T. ) ;
#130 = CARTESIAN_POINT ( 'NONE',  ( -18.00000000000000000, 0.000000000000000000, 0.000000000000000000 ) ) ;
#131 = FACE_OUTER_BOUND ( 'NONE', #36, .T. ) ;
#132 = CARTESIAN_POINT ( 'NONE',  ( 18.00000000000000000, 0.000000000000000000, 0.000000000000000000 ) ) ;
#133 = CYLINDRICAL_SURFACE ( 'NONE', #218, 0.09800000000000000377 ) ;
#134 = SURFACE_SIDE_STYLE ('',( #79 ) ) ;
#135 = CARTESIAN_POINT ( 'NONE',  ( -18.00000000000000000, 0.000000000000000000, 0.09800000000000000377 ) ) ;
#136 = CARTESIAN_POINT ( 'NONE',  ( 18.00000000000000000, 0.000000000000000000, 0.000000000000000000 ) ) ;
#137 = CARTESIAN_POINT ( 'NONE',  ( -18.00000000000000000, 0.000000000000000000, 0.000000000000000000 ) ) ;
#138 = ADVANCED_FACE ( 'NONE', ( #120 ), #32, .T. ) ;
#139 = FACE_OUTER_BOUND ( 'NONE', #24, .T. ) ;
#140 = MANIFOLD_SOLID_BREP ( 'Boss-Extrude1', #114 ) ;
#141 = FILL_AREA_STYLE_COLOUR ( '', #54 ) ;
#142 = ORIENTED_EDGE ( 'NONE', *, *, #184, .T. ) ;
#143 = AXIS2_PLACEMENT_3D ( 'NONE', #137, #86, #202 ) ;
#144 = COLOUR_RGB ( '',0.2980392156862745057, 0.2980392156862745057, 0.2980392156862745057 ) ;
#145 = DIRECTION ( 'NONE',  ( 0.000000000000000000, 0.000000000000000000, -1.000000000000000000 ) ) ;
#146 = SURFACE_STYLE_USAGE ( .BOTH. , #134 ) ;
#147 = FACE_OUTER_BOUND ( 'NONE', #207, .T. ) ;
#148 = ADVANCED_FACE ( 'NONE', ( #139 ), #125, .F. ) ;
#149 = LENGTH_MEASURE_WITH_UNIT ( LENGTH_MEASURE( 0.02539999999999999897 ), #115 );
#150 =( NAMED_UNIT ( * ) SI_UNIT ( $, .STERADIAN. ) SOLID_ANGLE_UNIT ( ) );
#151 = EDGE_CURVE ( 'NONE', #55, #90, #159, .T. ) ;
#152 = CIRCLE ( 'NONE', #209, 0.2494999999999999996 ) ;
#153 = AXIS2_PLACEMENT_3D ( 'NONE', #105, #155, #206 ) ;
#154 = DIRECTION ( 'NONE',  ( 0.000000000000000000, 0.000000000000000000, -1.000000000000000000 ) ) ;
#155 = DIRECTION ( 'NONE',  ( -1.000000000000000000, -0.000000000000000000, -0.000000000000000000 ) ) ;
#156 = DIRECTION ( 'NONE',  ( -1.000000000000000000, -0.000000000000000000, -0.000000000000000000 ) ) ;
#157 = ORIENTED_EDGE ( 'NONE', *, *, #129, .T. ) ;
#158 = SURFACE_STYLE_FILL_AREA ( #126 ) ;
#159 = CIRCLE ( 'NONE', #91, 0.09800000000000000377 ) ;
#160 = CARTESIAN_POINT ( 'NONE',  ( -18.00000000000000000, 3.055493763872646265E-17, -0.2494999999999999996 ) ) ;
#161 = PRODUCT ( 'WCP-0913', 'WCP-0913', '', ( #16 ) ) ;
#162 = DIRECTION ( 'NONE',  ( -1.000000000000000000, -0.000000000000000000, -0.000000000000000000 ) ) ;
#163 = ORIENTED_EDGE ( 'NONE', *, *, #67, .T. ) ;
#164 = CIRCLE ( 'NONE', #64, 0.2494999999999999996 ) ;
#165 = UNCERTAINTY_MEASURE_WITH_UNIT (LENGTH_MEASURE( 1.000000000000000082E-05 ), #195, 'distance_accuracy_value', 'NONE');
#166 = STYLED_ITEM ( 'NONE', ( #63 ), #48 ) ;
#167 = APPLICATION_PROTOCOL_DEFINITION ( 'draft international standard', 'automotive_design', 1998, #6 ) ;
#168 = LINE ( 'NONE', #170, #84 ) ;
#169 = VERTEX_POINT ( 'NONE', #135 ) ;
#170 = CARTESIAN_POINT ( 'NONE',  ( 18.00000000000000000, 3.055493763872646265E-17, -0.2494999999999999996 ) ) ;
#171 = DIRECTION ( 'NONE',  ( -1.000000000000000000, -0.000000000000000000, -0.000000000000000000 ) ) ;
#172 = SURFACE_STYLE_USAGE ( .BOTH. , #21 ) ;
#173 = CARTESIAN_POINT ( 'NONE',  ( 18.00000000000000000, 1.200153863164406105E-17, -0.09800000000000000377 ) ) ;
#174 = EDGE_CURVE ( 'NONE', #90, #55, #121, .T. ) ;
#175 = DIRECTION ( 'NONE',  ( 1.000000000000000000, 0.000000000000000000, 0.000000000000000000 ) ) ;
#176 = CYLINDRICAL_SURFACE ( 'NONE', #44, 0.2494999999999999996 ) ;
#177 = CARTESIAN_POINT ( 'NONE',  ( 18.00000000000000000, 0.000000000000000000, 0.000000000000000000 ) ) ;
#178 = CARTESIAN_POINT ( 'NONE',  ( -18.00000000000000000, 0.000000000000000000, 0.000000000000000000 ) ) ;
#179 = PRESENTATION_LAYER_ASSIGNMENT (  '', '', ( #127 ) ) ;
#180 = EDGE_LOOP ( 'NONE', ( #28, #157 ) ) ;
#181 = CIRCLE ( 'NONE', #101, 0.2494999999999999996 ) ;
#182 = UNCERTAINTY_MEASURE_WITH_UNIT (LENGTH_MEASURE( 1.000000000000000082E-05 ), #27, 'distance_accuracy_value', 'NONE');
#183 = DIRECTION ( 'NONE',  ( 0.000000000000000000, 0.000000000000000000, -1.000000000000000000 ) ) ;
#184 = EDGE_CURVE ( 'NONE', #55, #187, #59, .T. ) ;
#185 = ORIENTED_EDGE ( 'NONE', *, *, #190, .T. ) ;
#186 = DIRECTION ( 'NONE',  ( 1.000000000000000000, 0.000000000000000000, 0.000000000000000000 ) ) ;
#187 = VERTEX_POINT ( 'NONE', #210 ) ;
#188 = LENGTH_MEASURE_WITH_UNIT ( LENGTH_MEASURE( 0.02539999999999999897 ), #74 );
#189 = DIMENSIONAL_EXPONENTS ( 1.000000000000000000, 0.000000000000000000, 0.000000000000000000, 0.000000000000000000, 0.000000000000000000, 0.000000000000000000, 0.000000000000000000 ) ;
#190 = EDGE_CURVE ( 'NONE', #88, #128, #152, .T. ) ;
#191 = DIRECTION ( 'NONE',  ( 0.000000000000000000, 0.000000000000000000, -1.000000000000000000 ) ) ;
#192 = CARTESIAN_POINT ( 'NONE',  ( 18.00000000000000000, 0.000000000000000000, 0.000000000000000000 ) ) ;
#193 = FACE_BOUND ( 'NONE', #180, .T. ) ;
#194 = CARTESIAN_POINT ( 'NONE',  ( 18.00000000000000000, 0.000000000000000000, 0.000000000000000000 ) ) ;
#195 =( CONVERSION_BASED_UNIT ( 'INCH', #11 ) LENGTH_UNIT ( ) NAMED_UNIT ( #38 ) );
#196 = DIRECTION ( 'NONE',  ( -1.000000000000000000, -0.000000000000000000, -0.000000000000000000 ) ) ;
#197 = MECHANICAL_DESIGN_GEOMETRIC_PRESENTATION_REPRESENTATION (  '', ( #127 ), #56 ) ;
#198 = APPLICATION_CONTEXT ( 'automotive_design' ) ;
#199 = EDGE_LOOP ( 'NONE', ( #18, #73 ) ) ;
#200 = APPLICATION_PROTOCOL_DEFINITION ( 'draft international standard', 'automotive_design', 1998, #198 ) ;
#201 = ADVANCED_FACE ( 'NONE', ( #57, #193 ), #111, .F. ) ;
#202 = DIRECTION ( 'NONE',  ( 0.000000000000000000, 0.000000000000000000, -1.000000000000000000 ) ) ;
#203 =( NAMED_UNIT ( * ) SI_UNIT ( $, .STERADIAN. ) SOLID_ANGLE_UNIT ( ) );
#204 = CARTESIAN_POINT ( 'NONE',  ( 18.00000000000000000, 0.000000000000000000, 0.2494999999999999996 ) ) ;
#205 = PRODUCT_DEFINITION_FORMATION_WITH_SPECIFIED_SOURCE ( 'ANY', '', #161, .NOT_KNOWN. ) ;
#206 = DIRECTION ( 'NONE',  ( 0.000000000000000000, 0.000000000000000000, 1.000000000000000000 ) ) ;
#207 = EDGE_LOOP ( 'NONE', ( #47, #58, #22, #124 ) ) ;
#208 = CIRCLE ( 'NONE', #143, 0.09800000000000000377 ) ;
#209 = AXIS2_PLACEMENT_3D ( 'NONE', #76, #40, #82 ) ;
#210 = CARTESIAN_POINT ( 'NONE',  ( -18.00000000000000000, 1.200153863164406105E-17, -0.09800000000000000377 ) ) ;
#211 = EDGE_LOOP ( 'NONE', ( #75, #106, #163, #43 ) ) ;
#212 =( NAMED_UNIT ( * ) PLANE_ANGLE_UNIT ( ) SI_UNIT ( $, .RADIAN. ) );
#213 = CARTESIAN_POINT ( 'NONE',  ( 18.00000000000000000, 0.000000000000000000, 0.09800000000000000377 ) ) ;
#214 =( LENGTH_UNIT ( ) NAMED_UNIT ( * ) SI_UNIT ( $, .METRE. ) );
#215 = ORIENTED_EDGE ( 'NONE', *, *, #69, .T. ) ;
#216 = PRODUCT_RELATED_PRODUCT_CATEGORY ( 'part', '', ( #161 ) ) ;
#217 = DIRECTION ( 'NONE',  ( 1.000000000000000000, 0.000000000000000000, 0.000000000000000000 ) ) ;
#218 = AXIS2_PLACEMENT_3D ( 'NONE', #194, #223, #70 ) ;
#219 = UNCERTAINTY_MEASURE_WITH_UNIT (LENGTH_MEASURE( 1.000000000000000082E-05 ), #37, 'distance_accuracy_value', 'NONE');
#220 = DIRECTION ( 'NONE',  ( 1.000000000000000000, 0.000000000000000000, 0.000000000000000000 ) ) ;
#221 = DIRECTION ( 'NONE',  ( 0.000000000000000000, 0.000000000000000000, 1.000000000000000000 ) ) ;
#222 = FACE_BOUND ( 'NONE', #199, .T. ) ;
#223 = DIRECTION ( 'NONE',  ( -1.000000000000000000, -0.000000000000000000, -0.000000000000000000 ) ) ;
ENDSEC;
END-ISO-10303-21;
