ISO-10303-21;
HEADER;
FILE_DESCRIPTION (( 'STEP AP214' ),
    '1' );
FILE_NAME ('WCP-0912.STEP',
    '2023-10-06T01:17:46',
    ( '' ),
    ( '' ),
    'SwSTEP 2.0',
    'SolidWorks 2022',
    '' );
FILE_SCHEMA (( 'AUTOMOTIVE_DESIGN' ));
ENDSEC;

DATA;
#1 = LINE ( 'NONE', #171, #134 ) ;
#2 = VERTEX_POINT ( 'NONE', #51 ) ;
#3 = STYLED_ITEM ( 'NONE', ( #219 ), #36 ) ;
#4 = ORIENTED_EDGE ( 'NONE', *, *, #229, .F. ) ;
#5 = FILL_AREA_STYLE_COLOUR ( '', #193 ) ;
#6 =( LENGTH_UNIT ( ) NAMED_UNIT ( * ) SI_UNIT ( $, .METRE. ) );
#7 = AXIS2_PLACEMENT_3D ( 'NONE', #226, #130, #146 ) ;
#8 = EDGE_CURVE ( 'NONE', #253, #2, #73, .T. ) ;
#9 = LINE ( 'NONE', #99, #181 ) ;
#10 = CARTESIAN_POINT ( 'NONE',  ( 18.00000000000000000, -0.1874999999999999722, -0.1082531754730549078 ) ) ;
#11 = VERTEX_POINT ( 'NONE', #96 ) ;
#12 = AXIS2_PLACEMENT_3D ( 'NONE', #105, #44, #47 ) ;
#13 = LINE ( 'NONE', #101, #77 ) ;
#14 = EDGE_CURVE ( 'NONE', #106, #228, #239, .T. ) ;
#15 = LINE ( 'NONE', #124, #227 ) ;
#16 = DIMENSIONAL_EXPONENTS ( 1.000000000000000000, 0.000000000000000000, 0.000000000000000000, 0.000000000000000000, 0.000000000000000000, 0.000000000000000000, 0.000000000000000000 ) ;
#17 = DIRECTION ( 'NONE',  ( 0.000000000000000000, -1.577233174527201850E-16, 1.000000000000000000 ) ) ;
#18 = PRODUCT_DEFINITION_FORMATION_WITH_SPECIFIED_SOURCE ( 'ANY', '', #97, .NOT_KNOWN. ) ;
#19 = PRESENTATION_STYLE_ASSIGNMENT (( #43 ) ) ;
#20 = CARTESIAN_POINT ( 'NONE',  ( -18.00000000000000000, -1.365458132383560429E-16, 0.2165063509461095659 ) ) ;
#21 = PRODUCT_DEFINITION_CONTEXT ( 'detailed design', #81, 'design' ) ;
#22 = DIRECTION ( 'NONE',  ( 0.000000000000000000, 0.8660254037844384856, 0.5000000000000001110 ) ) ;
#23 = VERTEX_POINT ( 'NONE', #31 ) ;
#24 = COLOUR_RGB ( '',0.2980392156862745057, 0.2980392156862745057, 0.2980392156862745057 ) ;
#25 = CARTESIAN_POINT ( 'NONE',  ( 18.00000000000000000, -1.365458132383560429E-16, 0.2165063509461095659 ) ) ;
#26 = EDGE_LOOP ( 'NONE', ( #275, #69, #198, #250 ) ) ;
#27 = EDGE_CURVE ( 'NONE', #39, #11, #33, .T. ) ;
#28 = SURFACE_STYLE_FILL_AREA ( #152 ) ;
#29 = ORIENTED_EDGE ( 'NONE', *, *, #37, .T. ) ;
#30 = PRODUCT_DEFINITION_SHAPE ( 'NONE', 'NONE',  #42 ) ;
#31 = CARTESIAN_POINT ( 'NONE',  ( -18.00000000000000000, 0.1875000000000000278, -0.1082531754730547829 ) ) ;
#32 = LENGTH_MEASURE_WITH_UNIT ( LENGTH_MEASURE( 0.02539999999999999897 ), #64 );
#33 = LINE ( 'NONE', #138, #274 ) ;
#34 = DIRECTION ( 'NONE',  ( 0.000000000000000000, 0.8660254037844384856, 0.5000000000000001110 ) ) ;
#35 = DIRECTION ( 'NONE',  ( 0.000000000000000000, 0.8660254037844389297, -0.4999999999999994449 ) ) ;
#36 = MANIFOLD_SOLID_BREP ( 'Boss-Extrude1', #40 ) ;
#37 = EDGE_CURVE ( 'NONE', #80, #39, #9, .T. ) ;
#38 = CARTESIAN_POINT ( 'NONE',  ( -18.00000000000000000, -0.1875000000000000555, 0.1082531754730546580 ) ) ;
#39 = VERTEX_POINT ( 'NONE', #114 ) ;
#40 = CLOSED_SHELL ( 'NONE', ( #197, #108, #255, #111, #206, #123, #135, #166 ) ) ;
#41 = CARTESIAN_POINT ( 'NONE',  ( -18.00000000000000000, 0.1875000000000000278, -0.1082531754730547829 ) ) ;
#42 = PRODUCT_DEFINITION ( 'UNKNOWN', '', #18, #21 ) ;
#43 = SURFACE_STYLE_USAGE ( .BOTH. , #249 ) ;
#44 = DIRECTION ( 'NONE',  ( -0.000000000000000000, 0.4999999999999994449, 0.8660254037844390407 ) ) ;
#45 = ORIENTED_EDGE ( 'NONE', *, *, #185, .T. ) ;
#46 = VERTEX_POINT ( 'NONE', #95 ) ;
#47 = DIRECTION ( 'NONE',  ( 0.000000000000000000, -0.8660254037844389297, 0.4999999999999993894 ) ) ;
#48 = ORIENTED_EDGE ( 'NONE', *, *, #209, .T. ) ;
#49 = APPLICATION_CONTEXT ( 'automotive_design' ) ;
#50 =( NAMED_UNIT ( * ) SI_UNIT ( $, .STERADIAN. ) SOLID_ANGLE_UNIT ( ) );
#51 = CARTESIAN_POINT ( 'NONE',  ( -18.00000000000000000, -1.365458132383560429E-16, 0.2165063509461095659 ) ) ;
#52 = EDGE_CURVE ( 'NONE', #11, #253, #259, .T. ) ;
#53 = EDGE_LOOP ( 'NONE', ( #65, #29, #151, #155, #59, #269 ) ) ;
#54 = CARTESIAN_POINT ( 'NONE',  ( 18.00000000000000000, -1.365458132383560429E-16, 0.2165063509461095659 ) ) ;
#55 = SURFACE_STYLE_FILL_AREA ( #158 ) ;
#56 = FACE_OUTER_BOUND ( 'NONE', #53, .T. ) ;
#57 = VECTOR ( 'NONE', #204, 39.37007874015748143 ) ;
#58 = DIRECTION ( 'NONE',  ( -0.000000000000000000, 1.000000000000000000, 3.154466349054404193E-16 ) ) ;
#59 = ORIENTED_EDGE ( 'NONE', *, *, #234, .T. ) ;
#60 = EDGE_CURVE ( 'NONE', #106, #80, #237, .T. ) ;
#61 = CARTESIAN_POINT ( 'NONE',  ( 18.00000000000000000, 0.1874999999999999722, 0.1082531754730548246 ) ) ;
#62 = FACE_OUTER_BOUND ( 'NONE', #118, .T. ) ;
#63 = EDGE_CURVE ( 'NONE', #39, #23, #13, .T. ) ;
#64 =( LENGTH_UNIT ( ) NAMED_UNIT ( * ) SI_UNIT ( $, .METRE. ) );
#65 = ORIENTED_EDGE ( 'NONE', *, *, #60, .T. ) ;
#66 = VECTOR ( 'NONE', #17, 39.37007874015748143 ) ;
#67 = LINE ( 'NONE', #107, #170 ) ;
#68 = VERTEX_POINT ( 'NONE', #38 ) ;
#69 = ORIENTED_EDGE ( 'NONE', *, *, #8, .F. ) ;
#70 = ORIENTED_EDGE ( 'NONE', *, *, #37, .F. ) ;
#71 = DIRECTION ( 'NONE',  ( 0.000000000000000000, -0.8660254037844390407, 0.4999999999999994449 ) ) ;
#72 = VECTOR ( 'NONE', #103, 39.37007874015748143 ) ;
#73 = LINE ( 'NONE', #54, #91 ) ;
#74 = ORIENTED_EDGE ( 'NONE', *, *, #14, .F. ) ;
#75 = LINE ( 'NONE', #252, #121 ) ;
#76 = PLANE ( 'NONE',  #104 ) ;
#77 = VECTOR ( 'NONE', #122, 39.37007874015748143 ) ;
#78 = ORIENTED_EDGE ( 'NONE', *, *, #8, .T. ) ;
#79 = PLANE ( 'NONE',  #218 ) ;
#80 = VERTEX_POINT ( 'NONE', #182 ) ;
#81 = APPLICATION_CONTEXT ( 'automotive_design' ) ;
#82 = DIRECTION ( 'NONE',  ( 0.000000000000000000, -0.8660254037844385966, -0.5000000000000001110 ) ) ;
#83 = DIRECTION ( 'NONE',  ( 0.000000000000000000, 0.000000000000000000, -1.000000000000000000 ) ) ;
#84 = VECTOR ( 'NONE', #120, 39.37007874015748854 ) ;
#85 = DIMENSIONAL_EXPONENTS ( 1.000000000000000000, 0.000000000000000000, 0.000000000000000000, 0.000000000000000000, 0.000000000000000000, 0.000000000000000000, 0.000000000000000000 ) ;
#86 = PLANE ( 'NONE',  #173 ) ;
#87 = ORIENTED_EDGE ( 'NONE', *, *, #90, .F. ) ;
#88 = DIRECTION ( 'NONE',  ( 0.000000000000000000, 1.577233174527202097E-16, -1.000000000000000000 ) ) ;
#89 = VERTEX_POINT ( 'NONE', #183 ) ;
#90 = EDGE_CURVE ( 'NONE', #46, #106, #15, .T. ) ;
#91 = VECTOR ( 'NONE', #199, 39.37007874015748143 ) ;
#92 =( CONVERSION_BASED_UNIT ( 'INCH', #148 ) LENGTH_UNIT ( ) NAMED_UNIT ( #16 ) );
#93 = EDGE_CURVE ( 'NONE', #228, #196, #222, .T. ) ;
#94 = MECHANICAL_DESIGN_GEOMETRIC_PRESENTATION_REPRESENTATION (  '', ( #3 ), #131 ) ;
#95 = CARTESIAN_POINT ( 'NONE',  ( 18.00000000000000000, -0.1875000000000000555, 0.1082531754730546580 ) ) ;
#96 = CARTESIAN_POINT ( 'NONE',  ( 18.00000000000000000, 0.1874999999999999722, 0.1082531754730548246 ) ) ;
#97 = PRODUCT ( 'WCP-0912', 'WCP-0912', '', ( #238 ) ) ;
#98 = PRESENTATION_LAYER_ASSIGNMENT (  '', '', ( #3 ) ) ;
#99 = CARTESIAN_POINT ( 'NONE',  ( 18.00000000000000000, 1.366141193923050327E-16, -0.2165063509461096214 ) ) ;
#100 = ORIENTED_EDGE ( 'NONE', *, *, #185, .F. ) ;
#101 = CARTESIAN_POINT ( 'NONE',  ( 18.00000000000000000, 0.1875000000000000278, -0.1082531754730547829 ) ) ;
#102 = DIRECTION ( 'NONE',  ( 0.000000000000000000, 3.154466349054404193E-16, -1.000000000000000000 ) ) ;
#103 = DIRECTION ( 'NONE',  ( -1.000000000000000000, -0.000000000000000000, -0.000000000000000000 ) ) ;
#104 = AXIS2_PLACEMENT_3D ( 'NONE', #161, #224, #82 ) ;
#105 = CARTESIAN_POINT ( 'NONE',  ( 18.00000000000000000, -0.1874999999999999722, -0.1082531754730549078 ) ) ;
#106 = VERTEX_POINT ( 'NONE', #10 ) ;
#107 = CARTESIAN_POINT ( 'NONE',  ( -18.00000000000000000, -0.1875000000000000555, 0.1082531754730546580 ) ) ;
#108 = ADVANCED_FACE ( 'NONE', ( #62 ), #76, .F. ) ;
#109 = PLANE ( 'NONE',  #12 ) ;
#110 = ORIENTED_EDGE ( 'NONE', *, *, #157, .F. ) ;
#111 = ADVANCED_FACE ( 'NONE', ( #159 ), #184, .F. ) ;
#112 = PLANE ( 'NONE',  #7 ) ;
#113 = ORIENTED_EDGE ( 'NONE', *, *, #93, .F. ) ;
#114 = CARTESIAN_POINT ( 'NONE',  ( 18.00000000000000000, 0.1875000000000000278, -0.1082531754730547829 ) ) ;
#115 = VECTOR ( 'NONE', #266, 39.37007874015748143 ) ;
#116 = DIRECTION ( 'NONE',  ( 1.000000000000000000, 0.000000000000000000, 0.000000000000000000 ) ) ;
#117 = PRESENTATION_LAYER_ASSIGNMENT (  '', '', ( #179 ) ) ;
#118 = EDGE_LOOP ( 'NONE', ( #230, #169, #70, #240 ) ) ;
#119 = LINE ( 'NONE', #205, #84 ) ;
#120 = DIRECTION ( 'NONE',  ( 0.000000000000000000, -0.8660254037844390407, 0.4999999999999994449 ) ) ;
#121 = VECTOR ( 'NONE', #22, 39.37007874015748854 ) ;
#122 = DIRECTION ( 'NONE',  ( -1.000000000000000000, -0.000000000000000000, -0.000000000000000000 ) ) ;
#123 = ADVANCED_FACE ( 'NONE', ( #271 ), #245, .F. ) ;
#124 = CARTESIAN_POINT ( 'NONE',  ( 18.00000000000000000, -0.1875000000000000555, 0.1082531754730546580 ) ) ;
#125 = UNCERTAINTY_MEASURE_WITH_UNIT (LENGTH_MEASURE( 1.000000000000000082E-05 ), #92, 'distance_accuracy_value', 'NONE');
#126 = CARTESIAN_POINT ( 'NONE',  ( 18.00000000000000000, 0.1875000000000000278, -0.1082531754730547829 ) ) ;
#127 = EDGE_LOOP ( 'NONE', ( #273, #110, #178, #172 ) ) ;
#128 = EDGE_CURVE ( 'NONE', #23, #89, #268, .T. ) ;
#129 = FILL_AREA_STYLE_COLOUR ( '', #24 ) ;
#130 = DIRECTION ( 'NONE',  ( 0.000000000000000000, 0.5000000000000004441, -0.8660254037844383745 ) ) ;
#131 =( GEOMETRIC_REPRESENTATION_CONTEXT ( 3 ) GLOBAL_UNCERTAINTY_ASSIGNED_CONTEXT ( ( #164 ) ) GLOBAL_UNIT_ASSIGNED_CONTEXT ( ( #201, #137, #263 ) ) REPRESENTATION_CONTEXT ( 'NONE', 'WORKASPACE' ) );
#132 =( NAMED_UNIT ( * ) PLANE_ANGLE_UNIT ( ) SI_UNIT ( $, .RADIAN. ) );
#133 = CARTESIAN_POINT ( 'NONE',  ( 18.00000000000000000, -0.1874999999999999722, -0.1082531754730549078 ) ) ;
#134 = VECTOR ( 'NONE', #254, 39.37007874015748143 ) ;
#135 = ADVANCED_FACE ( 'NONE', ( #56 ), #79, .T. ) ;
#136 = APPLICATION_PROTOCOL_DEFINITION ( 'draft international standard', 'automotive_design', 1998, #81 ) ;
#137 =( NAMED_UNIT ( * ) PLANE_ANGLE_UNIT ( ) SI_UNIT ( $, .RADIAN. ) );
#138 = CARTESIAN_POINT ( 'NONE',  ( 18.00000000000000000, 0.1875000000000000278, -0.1082531754730547829 ) ) ;
#139 = DIRECTION ( 'NONE',  ( 0.000000000000000000, 0.000000000000000000, 1.000000000000000000 ) ) ;
#140 = AXIS2_PLACEMENT_3D ( 'NONE', #176, #139, #116 ) ;
#141 = DIRECTION ( 'NONE',  ( 0.000000000000000000, 0.000000000000000000, -1.000000000000000000 ) ) ;
#142 = FACE_OUTER_BOUND ( 'NONE', #187, .T. ) ;
#143 = DIRECTION ( 'NONE',  ( -1.000000000000000000, -0.000000000000000000, -0.000000000000000000 ) ) ;
#144 = DIRECTION ( 'NONE',  ( 0.000000000000000000, -3.154466349054404193E-16, 1.000000000000000000 ) ) ;
#145 = CARTESIAN_POINT ( 'NONE',  ( 18.00000000000000000, 0.000000000000000000, 0.000000000000000000 ) ) ;
#146 = DIRECTION ( 'NONE',  ( 0.000000000000000000, 0.8660254037844383745, 0.5000000000000004441 ) ) ;
#147 = AXIS2_PLACEMENT_3D ( 'NONE', #160, #58, #144 ) ;
#148 = LENGTH_MEASURE_WITH_UNIT ( LENGTH_MEASURE( 0.02539999999999999897 ), #190 );
#149 = ORIENTED_EDGE ( 'NONE', *, *, #261, .F. ) ;
#150 = CARTESIAN_POINT ( 'NONE',  ( 18.00000000000000000, -1.365458132383560429E-16, 0.2165063509461095659 ) ) ;
#151 = ORIENTED_EDGE ( 'NONE', *, *, #27, .T. ) ;
#152 = FILL_AREA_STYLE ('',( #129 ) ) ;
#153 = EDGE_CURVE ( 'NONE', #11, #89, #247, .T. ) ;
#154 = ORIENTED_EDGE ( 'NONE', *, *, #209, .F. ) ;
#155 = ORIENTED_EDGE ( 'NONE', *, *, #52, .T. ) ;
#156 = SURFACE_STYLE_USAGE ( .BOTH. , #260 ) ;
#157 = EDGE_CURVE ( 'NONE', #80, #196, #210, .T. ) ;
#158 = FILL_AREA_STYLE ('',( #5 ) ) ;
#159 = FACE_OUTER_BOUND ( 'NONE', #26, .T. ) ;
#160 = CARTESIAN_POINT ( 'NONE',  ( 18.00000000000000000, -0.1875000000000000555, 0.1082531754730546580 ) ) ;
#161 = CARTESIAN_POINT ( 'NONE',  ( 18.00000000000000000, 1.366141193923050327E-16, -0.2165063509461096214 ) ) ;
#162 = VECTOR ( 'NONE', #71, 39.37007874015748854 ) ;
#163 = DIRECTION ( 'NONE',  ( 0.000000000000000000, 0.8660254037844389297, -0.4999999999999993894 ) ) ;
#164 = UNCERTAINTY_MEASURE_WITH_UNIT (LENGTH_MEASURE( 1.000000000000000082E-05 ), #201, 'distance_accuracy_value', 'NONE');
#165 = DIRECTION ( 'NONE',  ( 0.000000000000000000, -0.8660254037844383745, -0.5000000000000004441 ) ) ;
#166 = ADVANCED_FACE ( 'NONE', ( #142 ), #86, .F. ) ;
#167 = APPLICATION_PROTOCOL_DEFINITION ( 'draft international standard', 'automotive_design', 1998, #49 ) ;
#168 = CARTESIAN_POINT ( 'NONE',  ( -18.00000000000000000, -0.1874999999999999722, -0.1082531754730549078 ) ) ;
#169 = ORIENTED_EDGE ( 'NONE', *, *, #63, .F. ) ;
#170 = VECTOR ( 'NONE', #194, 39.37007874015748143 ) ;
#171 = CARTESIAN_POINT ( 'NONE',  ( 18.00000000000000000, -0.1875000000000000555, 0.1082531754730546580 ) ) ;
#172 = ORIENTED_EDGE ( 'NONE', *, *, #14, .T. ) ;
#173 = AXIS2_PLACEMENT_3D ( 'NONE', #221, #241, #141 ) ;
#174 = CARTESIAN_POINT ( 'NONE',  ( 18.00000000000000000, 0.1874999999999999722, 0.1082531754730548246 ) ) ;
#175 = EDGE_CURVE ( 'NONE', #89, #2, #119, .T. ) ;
#176 = CARTESIAN_POINT ( 'NONE',  ( 0.000000000000000000, 0.000000000000000000, 0.000000000000000000 ) ) ;
#177 = CARTESIAN_POINT ( 'NONE',  ( 18.00000000000000000, -0.1874999999999999722, -0.1082531754730549078 ) ) ;
#178 = ORIENTED_EDGE ( 'NONE', *, *, #60, .F. ) ;
#179 = STYLED_ITEM ( 'NONE', ( #19 ), #235 ) ;
#180 = LENGTH_MEASURE_WITH_UNIT ( LENGTH_MEASURE( 0.02539999999999999897 ), #6 );
#181 = VECTOR ( 'NONE', #34, 39.37007874015748854 ) ;
#182 = CARTESIAN_POINT ( 'NONE',  ( 18.00000000000000000, 1.366141193923050327E-16, -0.2165063509461096214 ) ) ;
#183 = CARTESIAN_POINT ( 'NONE',  ( -18.00000000000000000, 0.1874999999999999722, 0.1082531754730548246 ) ) ;
#184 = PLANE ( 'NONE',  #267 ) ;
#185 = EDGE_CURVE ( 'NONE', #46, #68, #1, .T. ) ;
#186 =( GEOMETRIC_REPRESENTATION_CONTEXT ( 3 ) GLOBAL_UNCERTAINTY_ASSIGNED_CONTEXT ( ( #216 ) ) GLOBAL_UNIT_ASSIGNED_CONTEXT ( ( #202, #200, #50 ) ) REPRESENTATION_CONTEXT ( 'NONE', 'WORKASPACE' ) );
#187 = EDGE_LOOP ( 'NONE', ( #113, #154, #4, #236, #265, #149 ) ) ;
#188 = FACE_OUTER_BOUND ( 'NONE', #220, .T. ) ;
#189 = ORIENTED_EDGE ( 'NONE', *, *, #229, .T. ) ;
#190 =( LENGTH_UNIT ( ) NAMED_UNIT ( * ) SI_UNIT ( $, .METRE. ) );
#191 = VECTOR ( 'NONE', #163, 39.37007874015748143 ) ;
#192 = EDGE_LOOP ( 'NONE', ( #48, #74, #87, #45 ) ) ;
#193 = COLOUR_RGB ( '',0.2980392156862745057, 0.2980392156862745057, 0.2980392156862745057 ) ;
#194 = DIRECTION ( 'NONE',  ( 0.000000000000000000, 3.154466349054404193E-16, -1.000000000000000000 ) ) ;
#195 = LINE ( 'NONE', #20, #207 ) ;
#196 = VERTEX_POINT ( 'NONE', #215 ) ;
#197 = ADVANCED_FACE ( 'NONE', ( #232 ), #109, .F. ) ;
#198 = ORIENTED_EDGE ( 'NONE', *, *, #52, .F. ) ;
#199 = DIRECTION ( 'NONE',  ( -1.000000000000000000, -0.000000000000000000, -0.000000000000000000 ) ) ;
#200 =( NAMED_UNIT ( * ) PLANE_ANGLE_UNIT ( ) SI_UNIT ( $, .RADIAN. ) );
#201 =( CONVERSION_BASED_UNIT ( 'INCH', #180 ) LENGTH_UNIT ( ) NAMED_UNIT ( #244 ) );
#202 =( CONVERSION_BASED_UNIT ( 'INCH', #32 ) LENGTH_UNIT ( ) NAMED_UNIT ( #85 ) );
#203 = VECTOR ( 'NONE', #212, 39.37007874015748143 ) ;
#204 = DIRECTION ( 'NONE',  ( -1.000000000000000000, -0.000000000000000000, -0.000000000000000000 ) ) ;
#205 = CARTESIAN_POINT ( 'NONE',  ( -18.00000000000000000, 0.1874999999999999722, 0.1082531754730548246 ) ) ;
#206 = ADVANCED_FACE ( 'NONE', ( #213 ), #112, .F. ) ;
#207 = VECTOR ( 'NONE', #165, 39.37007874015748143 ) ;
#208 = DIRECTION ( 'NONE',  ( 1.000000000000000000, -0.000000000000000000, 0.000000000000000000 ) ) ;
#209 = EDGE_CURVE ( 'NONE', #68, #228, #67, .T. ) ;
#210 = LINE ( 'NONE', #272, #72 ) ;
#211 = ORIENTED_EDGE ( 'NONE', *, *, #153, .F. ) ;
#212 = DIRECTION ( 'NONE',  ( 0.000000000000000000, -0.8660254037844383745, -0.5000000000000004441 ) ) ;
#213 = FACE_OUTER_BOUND ( 'NONE', #277, .T. ) ;
#214 = ORIENTED_EDGE ( 'NONE', *, *, #128, .T. ) ;
#215 = CARTESIAN_POINT ( 'NONE',  ( -18.00000000000000000, 1.366141193923050327E-16, -0.2165063509461096214 ) ) ;
#216 = UNCERTAINTY_MEASURE_WITH_UNIT (LENGTH_MEASURE( 1.000000000000000082E-05 ), #202, 'distance_accuracy_value', 'NONE');
#217 = DIRECTION ( 'NONE',  ( 0.000000000000000000, -1.577233174527201850E-16, 1.000000000000000000 ) ) ;
#218 = AXIS2_PLACEMENT_3D ( 'NONE', #145, #208, #83 ) ;
#219 = PRESENTATION_STYLE_ASSIGNMENT (( #156 ) ) ;
#220 = EDGE_LOOP ( 'NONE', ( #214, #211, #258, #223 ) ) ;
#221 = CARTESIAN_POINT ( 'NONE',  ( -18.00000000000000000, 0.000000000000000000, 0.000000000000000000 ) ) ;
#222 = LINE ( 'NONE', #270, #115 ) ;
#223 = ORIENTED_EDGE ( 'NONE', *, *, #63, .T. ) ;
#224 = DIRECTION ( 'NONE',  ( 0.000000000000000000, -0.5000000000000001110, 0.8660254037844385966 ) ) ;
#225 = CARTESIAN_POINT ( 'NONE',  ( 18.00000000000000000, 0.1874999999999999722, 0.1082531754730548246 ) ) ;
#226 = CARTESIAN_POINT ( 'NONE',  ( 18.00000000000000000, -1.365458132383560429E-16, 0.2165063509461095659 ) ) ;
#227 = VECTOR ( 'NONE', #102, 39.37007874015748143 ) ;
#228 = VERTEX_POINT ( 'NONE', #168 ) ;
#229 = EDGE_CURVE ( 'NONE', #2, #68, #195, .T. ) ;
#230 = ORIENTED_EDGE ( 'NONE', *, *, #261, .T. ) ;
#231 = DIRECTION ( 'NONE',  ( 0.000000000000000000, -1.000000000000000000, -1.577233174527202097E-16 ) ) ;
#232 = FACE_OUTER_BOUND ( 'NONE', #127, .T. ) ;
#233 =( GEOMETRIC_REPRESENTATION_CONTEXT ( 3 ) GLOBAL_UNCERTAINTY_ASSIGNED_CONTEXT ( ( #125 ) ) GLOBAL_UNIT_ASSIGNED_CONTEXT ( ( #92, #132, #248 ) ) REPRESENTATION_CONTEXT ( 'NONE', 'WORKASPACE' ) );
#234 = EDGE_CURVE ( 'NONE', #253, #46, #256, .T. ) ;
#235 = ADVANCED_BREP_SHAPE_REPRESENTATION ( 'WCP-0912', ( #36, #140 ), #233 ) ;
#236 = ORIENTED_EDGE ( 'NONE', *, *, #175, .F. ) ;
#237 = LINE ( 'NONE', #177, #191 ) ;
#238 = PRODUCT_CONTEXT ( 'NONE', #49, 'mechanical' ) ;
#239 = LINE ( 'NONE', #133, #57 ) ;
#240 = ORIENTED_EDGE ( 'NONE', *, *, #157, .T. ) ;
#241 = DIRECTION ( 'NONE',  ( 1.000000000000000000, -0.000000000000000000, 0.000000000000000000 ) ) ;
#242 = AXIS2_PLACEMENT_3D ( 'NONE', #126, #231, #88 ) ;
#243 = DIRECTION ( 'NONE',  ( 0.000000000000000000, -0.4999999999999995004, -0.8660254037844390407 ) ) ;
#244 = DIMENSIONAL_EXPONENTS ( 1.000000000000000000, 0.000000000000000000, 0.000000000000000000, 0.000000000000000000, 0.000000000000000000, 0.000000000000000000, 0.000000000000000000 ) ;
#245 = PLANE ( 'NONE',  #147 ) ;
#246 = ORIENTED_EDGE ( 'NONE', *, *, #234, .F. ) ;
#247 = LINE ( 'NONE', #225, #251 ) ;
#248 =( NAMED_UNIT ( * ) SI_UNIT ( $, .STERADIAN. ) SOLID_ANGLE_UNIT ( ) );
#249 = SURFACE_SIDE_STYLE ('',( #28 ) ) ;
#250 = ORIENTED_EDGE ( 'NONE', *, *, #153, .T. ) ;
#251 = VECTOR ( 'NONE', #143, 39.37007874015748143 ) ;
#252 = CARTESIAN_POINT ( 'NONE',  ( -18.00000000000000000, 1.366141193923050327E-16, -0.2165063509461096214 ) ) ;
#253 = VERTEX_POINT ( 'NONE', #150 ) ;
#254 = DIRECTION ( 'NONE',  ( -1.000000000000000000, -0.000000000000000000, -0.000000000000000000 ) ) ;
#255 = ADVANCED_FACE ( 'NONE', ( #188 ), #276, .F. ) ;
#256 = LINE ( 'NONE', #25, #203 ) ;
#257 = MECHANICAL_DESIGN_GEOMETRIC_PRESENTATION_REPRESENTATION (  '', ( #179 ), #186 ) ;
#258 = ORIENTED_EDGE ( 'NONE', *, *, #27, .F. ) ;
#259 = LINE ( 'NONE', #174, #162 ) ;
#260 = SURFACE_SIDE_STYLE ('',( #55 ) ) ;
#261 = EDGE_CURVE ( 'NONE', #196, #23, #75, .T. ) ;
#262 = SHAPE_DEFINITION_REPRESENTATION ( #30, #235 ) ;
#263 =( NAMED_UNIT ( * ) SI_UNIT ( $, .STERADIAN. ) SOLID_ANGLE_UNIT ( ) );
#264 = PRODUCT_RELATED_PRODUCT_CATEGORY ( 'part', '', ( #97 ) ) ;
#265 = ORIENTED_EDGE ( 'NONE', *, *, #128, .F. ) ;
#266 = DIRECTION ( 'NONE',  ( 0.000000000000000000, 0.8660254037844389297, -0.4999999999999993894 ) ) ;
#267 = AXIS2_PLACEMENT_3D ( 'NONE', #61, #243, #35 ) ;
#268 = LINE ( 'NONE', #41, #66 ) ;
#269 = ORIENTED_EDGE ( 'NONE', *, *, #90, .T. ) ;
#270 = CARTESIAN_POINT ( 'NONE',  ( -18.00000000000000000, -0.1874999999999999722, -0.1082531754730549078 ) ) ;
#271 = FACE_OUTER_BOUND ( 'NONE', #192, .T. ) ;
#272 = CARTESIAN_POINT ( 'NONE',  ( 18.00000000000000000, 1.366141193923050327E-16, -0.2165063509461096214 ) ) ;
#273 = ORIENTED_EDGE ( 'NONE', *, *, #93, .T. ) ;
#274 = VECTOR ( 'NONE', #217, 39.37007874015748143 ) ;
#275 = ORIENTED_EDGE ( 'NONE', *, *, #175, .T. ) ;
#276 = PLANE ( 'NONE',  #242 ) ;
#277 = EDGE_LOOP ( 'NONE', ( #189, #100, #246, #78 ) ) ;
ENDSEC;
END-ISO-10303-21;
