ISO-10303-21;
HEADER;
FILE_DESCRIPTION (( 'STEP AP214' ),
    '1' );
FILE_NAME ('WCP-0910.STEP',
    '2023-10-06T01:15:44',
    ( '' ),
    ( '' ),
    'SwSTEP 2.0',
    'SolidWorks 2022',
    '' );
FILE_SCHEMA (( 'AUTOMOTIVE_DESIGN' ));
ENDSEC;

DATA;
#1 = CARTESIAN_POINT ( 'NONE',  ( -18.00000000000000000, 0.000000000000000000, 0.000000000000000000 ) ) ;
#2 = ORIENTED_EDGE ( 'NONE', *, *, #3, .F. ) ;
#3 = EDGE_CURVE ( 'NONE', #209, #97, #99, .T. ) ;
#4 = DIRECTION ( 'NONE',  ( -1.000000000000000000, -0.000000000000000000, -0.000000000000000000 ) ) ;
#5 = ORIENTED_EDGE ( 'NONE', *, *, #16, .T. ) ;
#6 = CARTESIAN_POINT ( 'NONE',  ( 18.00000000000000000, 0.000000000000000000, 0.000000000000000000 ) ) ;
#7 = CARTESIAN_POINT ( 'NONE',  ( -18.00000000000000000, 0.000000000000000000, 0.000000000000000000 ) ) ;
#8 = CIRCLE ( 'NONE', #133, 0.1870000000000000551 ) ;
#9 = EDGE_CURVE ( 'NONE', #173, #191, #14, .T. ) ;
#10 = PLANE ( 'NONE',  #194 ) ;
#11 = CYLINDRICAL_SURFACE ( 'NONE', #88, 0.1870000000000000551 ) ;
#12 = CARTESIAN_POINT ( 'NONE',  ( -18.00000000000000000, 0.000000000000000000, 0.09800000000000000377 ) ) ;
#13 = LINE ( 'NONE', #109, #183 ) ;
#14 = CIRCLE ( 'NONE', #68, 0.09800000000000000377 ) ;
#15 = CARTESIAN_POINT ( 'NONE',  ( 18.00000000000000000, 0.000000000000000000, 0.000000000000000000 ) ) ;
#16 = EDGE_CURVE ( 'NONE', #222, #70, #193, .T. ) ;
#17 = EDGE_LOOP ( 'NONE', ( #159, #81 ) ) ;
#18 =( NAMED_UNIT ( * ) SI_UNIT ( $, .STERADIAN. ) SOLID_ANGLE_UNIT ( ) );
#19 = DIRECTION ( 'NONE',  ( 1.000000000000000000, 0.000000000000000000, 0.000000000000000000 ) ) ;
#20 = ORIENTED_EDGE ( 'NONE', *, *, #3, .T. ) ;
#21 = DIRECTION ( 'NONE',  ( 1.000000000000000000, 0.000000000000000000, 0.000000000000000000 ) ) ;
#22 = AXIS2_PLACEMENT_3D ( 'NONE', #199, #4, #69 ) ;
#23 = DIRECTION ( 'NONE',  ( 0.000000000000000000, 0.000000000000000000, 1.000000000000000000 ) ) ;
#24 = FACE_BOUND ( 'NONE', #96, .T. ) ;
#25 = CARTESIAN_POINT ( 'NONE',  ( 18.00000000000000000, 0.000000000000000000, 0.000000000000000000 ) ) ;
#26 = SURFACE_SIDE_STYLE ('',( #187 ) ) ;
#27 = ADVANCED_FACE ( 'NONE', ( #120 ), #215, .F. ) ;
#28 = ORIENTED_EDGE ( 'NONE', *, *, #104, .F. ) ;
#29 = ORIENTED_EDGE ( 'NONE', *, *, #151, .F. ) ;
#30 = VECTOR ( 'NONE', #216, 39.37007874015748143 ) ;
#31 = COLOUR_RGB ( '',0.2980392156862745057, 0.2980392156862745057, 0.2980392156862745057 ) ;
#32 = DIRECTION ( 'NONE',  ( -1.000000000000000000, -0.000000000000000000, -0.000000000000000000 ) ) ;
#33 = DIRECTION ( 'NONE',  ( 0.000000000000000000, 0.000000000000000000, -1.000000000000000000 ) ) ;
#34 =( CONVERSION_BASED_UNIT ( 'INCH', #197 ) LENGTH_UNIT ( ) NAMED_UNIT ( #126 ) );
#35 = DIRECTION ( 'NONE',  ( 0.000000000000000000, 0.000000000000000000, -1.000000000000000000 ) ) ;
#36 = CARTESIAN_POINT ( 'NONE',  ( 18.00000000000000000, 2.290089514405551281E-17, -0.1870000000000000551 ) ) ;
#37 = EDGE_CURVE ( 'NONE', #157, #102, #154, .T. ) ;
#38 = CARTESIAN_POINT ( 'NONE',  ( 18.00000000000000000, 0.000000000000000000, 0.1870000000000000551 ) ) ;
#39 =( LENGTH_UNIT ( ) NAMED_UNIT ( * ) SI_UNIT ( $, .METRE. ) );
#40 = DIRECTION ( 'NONE',  ( 0.000000000000000000, 0.000000000000000000, -1.000000000000000000 ) ) ;
#41 = CARTESIAN_POINT ( 'NONE',  ( 18.00000000000000000, 0.000000000000000000, 0.1870000000000000551 ) ) ;
#42 =( NAMED_UNIT ( * ) SI_UNIT ( $, .STERADIAN. ) SOLID_ANGLE_UNIT ( ) );
#43 = UNCERTAINTY_MEASURE_WITH_UNIT (LENGTH_MEASURE( 1.000000000000000082E-05 ), #203, 'distance_accuracy_value', 'NONE');
#44 = SHAPE_DEFINITION_REPRESENTATION ( #116, #132 ) ;
#45 = EDGE_CURVE ( 'NONE', #157, #209, #106, .T. ) ;
#46 = EDGE_CURVE ( 'NONE', #70, #191, #13, .T. ) ;
#47 =( GEOMETRIC_REPRESENTATION_CONTEXT ( 3 ) GLOBAL_UNCERTAINTY_ASSIGNED_CONTEXT ( ( #131 ) ) GLOBAL_UNIT_ASSIGNED_CONTEXT ( ( #205, #135, #113 ) ) REPRESENTATION_CONTEXT ( 'NONE', 'WORKASPACE' ) );
#48 = EDGE_LOOP ( 'NONE', ( #155, #84 ) ) ;
#49 = EDGE_LOOP ( 'NONE', ( #206, #189, #180, #20 ) ) ;
#50 = CIRCLE ( 'NONE', #61, 0.09800000000000000377 ) ;
#51 = AXIS2_PLACEMENT_3D ( 'NONE', #57, #185, #23 ) ;
#52 = DIRECTION ( 'NONE',  ( 0.000000000000000000, 0.000000000000000000, 1.000000000000000000 ) ) ;
#53 = DIRECTION ( 'NONE',  ( 0.000000000000000000, 0.000000000000000000, -1.000000000000000000 ) ) ;
#54 = ORIENTED_EDGE ( 'NONE', *, *, #66, .F. ) ;
#55 = FACE_OUTER_BOUND ( 'NONE', #79, .T. ) ;
#56 =( GEOMETRIC_REPRESENTATION_CONTEXT ( 3 ) GLOBAL_UNCERTAINTY_ASSIGNED_CONTEXT ( ( #43 ) ) GLOBAL_UNIT_ASSIGNED_CONTEXT ( ( #203, #112, #42 ) ) REPRESENTATION_CONTEXT ( 'NONE', 'WORKASPACE' ) );
#57 = CARTESIAN_POINT ( 'NONE',  ( 18.00000000000000000, 0.000000000000000000, 0.000000000000000000 ) ) ;
#58 = CARTESIAN_POINT ( 'NONE',  ( -18.00000000000000000, 1.200153863164406105E-17, -0.09800000000000000377 ) ) ;
#59 = CARTESIAN_POINT ( 'NONE',  ( 18.00000000000000000, 0.000000000000000000, 0.09800000000000000377 ) ) ;
#60 = DIRECTION ( 'NONE',  ( 0.000000000000000000, 0.000000000000000000, 1.000000000000000000 ) ) ;
#61 = AXIS2_PLACEMENT_3D ( 'NONE', #6, #141, #210 ) ;
#62 = PRODUCT_DEFINITION_FORMATION_WITH_SPECIFIED_SOURCE ( 'ANY', '', #176, .NOT_KNOWN. ) ;
#63 = ORIENTED_EDGE ( 'NONE', *, *, #151, .T. ) ;
#64 = CARTESIAN_POINT ( 'NONE',  ( 18.00000000000000000, 0.000000000000000000, 0.000000000000000000 ) ) ;
#65 = ORIENTED_EDGE ( 'NONE', *, *, #9, .F. ) ;
#66 = EDGE_CURVE ( 'NONE', #222, #173, #217, .T. ) ;
#67 = PRODUCT_DEFINITION ( 'UNKNOWN', '', #62, #95 ) ;
#68 = AXIS2_PLACEMENT_3D ( 'NONE', #211, #198, #35 ) ;
#69 = DIRECTION ( 'NONE',  ( 0.000000000000000000, 0.000000000000000000, 1.000000000000000000 ) ) ;
#70 = VERTEX_POINT ( 'NONE', #59 ) ;
#71 =( NAMED_UNIT ( * ) PLANE_ANGLE_UNIT ( ) SI_UNIT ( $, .RADIAN. ) );
#72 = ORIENTED_EDGE ( 'NONE', *, *, #16, .F. ) ;
#73 = VECTOR ( 'NONE', #182, 39.37007874015748143 ) ;
#74 = COLOUR_RGB ( '',0.2980392156862745057, 0.2980392156862745057, 0.2980392156862745057 ) ;
#75 = LINE ( 'NONE', #184, #30 ) ;
#76 = FILL_AREA_STYLE_COLOUR ( '', #31 ) ;
#77 = MANIFOLD_SOLID_BREP ( 'Boss-Extrude1', #108 ) ;
#78 = PLANE ( 'NONE',  #175 ) ;
#79 = EDGE_LOOP ( 'NONE', ( #172, #196, #140, #136 ) ) ;
#80 = DIRECTION ( 'NONE',  ( -1.000000000000000000, -0.000000000000000000, -0.000000000000000000 ) ) ;
#81 = ORIENTED_EDGE ( 'NONE', *, *, #9, .T. ) ;
#82 = EDGE_CURVE ( 'NONE', #191, #173, #190, .T. ) ;
#83 = PRODUCT_RELATED_PRODUCT_CATEGORY ( 'part', '', ( #176 ) ) ;
#84 = ORIENTED_EDGE ( 'NONE', *, *, #152, .T. ) ;
#85 = EDGE_LOOP ( 'NONE', ( #54, #5, #174, #65 ) ) ;
#86 = AXIS2_PLACEMENT_3D ( 'NONE', #121, #178, #158 ) ;
#87 = FACE_OUTER_BOUND ( 'NONE', #138, .T. ) ;
#88 = AXIS2_PLACEMENT_3D ( 'NONE', #64, #80, #195 ) ;
#89 = DIRECTION ( 'NONE',  ( -1.000000000000000000, -0.000000000000000000, -0.000000000000000000 ) ) ;
#90 = STYLED_ITEM ( 'NONE', ( #166 ), #132 ) ;
#91 = CARTESIAN_POINT ( 'NONE',  ( -18.00000000000000000, 0.000000000000000000, 0.1870000000000000551 ) ) ;
#92 = DIRECTION ( 'NONE',  ( 1.000000000000000000, 0.000000000000000000, 0.000000000000000000 ) ) ;
#93 = SURFACE_STYLE_USAGE ( .BOTH. , #26 ) ;
#94 = DIRECTION ( 'NONE',  ( 1.000000000000000000, 0.000000000000000000, 0.000000000000000000 ) ) ;
#95 = PRODUCT_DEFINITION_CONTEXT ( 'detailed design', #223, 'design' ) ;
#96 = EDGE_LOOP ( 'NONE', ( #28, #72 ) ) ;
#97 = VERTEX_POINT ( 'NONE', #160 ) ;
#98 = AXIS2_PLACEMENT_3D ( 'NONE', #1, #207, #177 ) ;
#99 = CIRCLE ( 'NONE', #171, 0.1870000000000000551 ) ;
#100 = FACE_OUTER_BOUND ( 'NONE', #49, .T. ) ;
#101 = ORIENTED_EDGE ( 'NONE', *, *, #45, .F. ) ;
#102 = VERTEX_POINT ( 'NONE', #36 ) ;
#103 = PRESENTATION_LAYER_ASSIGNMENT (  '', '', ( #220 ) ) ;
#104 = EDGE_CURVE ( 'NONE', #70, #222, #50, .T. ) ;
#105 = ADVANCED_FACE ( 'NONE', ( #55 ), #123, .F. ) ;
#106 = LINE ( 'NONE', #38, #73 ) ;
#107 = FACE_OUTER_BOUND ( 'NONE', #48, .T. ) ;
#108 = CLOSED_SHELL ( 'NONE', ( #105, #115, #192, #213, #124, #27 ) ) ;
#109 = CARTESIAN_POINT ( 'NONE',  ( 18.00000000000000000, 0.000000000000000000, 0.09800000000000000377 ) ) ;
#110 = DIMENSIONAL_EXPONENTS ( 1.000000000000000000, 0.000000000000000000, 0.000000000000000000, 0.000000000000000000, 0.000000000000000000, 0.000000000000000000, 0.000000000000000000 ) ;
#111 = DIRECTION ( 'NONE',  ( 1.000000000000000000, 0.000000000000000000, 0.000000000000000000 ) ) ;
#112 =( NAMED_UNIT ( * ) PLANE_ANGLE_UNIT ( ) SI_UNIT ( $, .RADIAN. ) );
#113 =( NAMED_UNIT ( * ) SI_UNIT ( $, .STERADIAN. ) SOLID_ANGLE_UNIT ( ) );
#114 = ORIENTED_EDGE ( 'NONE', *, *, #152, .F. ) ;
#115 = ADVANCED_FACE ( 'NONE', ( #139 ), #11, .T. ) ;
#116 = PRODUCT_DEFINITION_SHAPE ( 'NONE', 'NONE',  #67 ) ;
#117 = CIRCLE ( 'NONE', #98, 0.1870000000000000551 ) ;
#118 = CYLINDRICAL_SURFACE ( 'NONE', #153, 0.1870000000000000551 ) ;
#119 = MECHANICAL_DESIGN_GEOMETRIC_PRESENTATION_REPRESENTATION (  '', ( #90 ), #47 ) ;
#120 = FACE_OUTER_BOUND ( 'NONE', #85, .T. ) ;
#121 = CARTESIAN_POINT ( 'NONE',  ( -18.00000000000000000, 0.000000000000000000, 0.000000000000000000 ) ) ;
#122 = DIRECTION ( 'NONE',  ( 1.000000000000000000, 0.000000000000000000, 0.000000000000000000 ) ) ;
#123 = CYLINDRICAL_SURFACE ( 'NONE', #22, 0.09800000000000000377 ) ;
#124 = ADVANCED_FACE ( 'NONE', ( #100 ), #118, .T. ) ;
#125 = SURFACE_SIDE_STYLE ('',( #200 ) ) ;
#126 = DIMENSIONAL_EXPONENTS ( 1.000000000000000000, 0.000000000000000000, 0.000000000000000000, 0.000000000000000000, 0.000000000000000000, 0.000000000000000000, 0.000000000000000000 ) ;
#127 = CARTESIAN_POINT ( 'NONE',  ( 18.00000000000000000, 1.200153863164406105E-17, -0.09800000000000000377 ) ) ;
#128 = DIRECTION ( 'NONE',  ( -1.000000000000000000, -0.000000000000000000, -0.000000000000000000 ) ) ;
#129 = CARTESIAN_POINT ( 'NONE',  ( 18.00000000000000000, 0.000000000000000000, 0.000000000000000000 ) ) ;
#130 = FILL_AREA_STYLE ('',( #218 ) ) ;
#131 = UNCERTAINTY_MEASURE_WITH_UNIT (LENGTH_MEASURE( 1.000000000000000082E-05 ), #205, 'distance_accuracy_value', 'NONE');
#132 = ADVANCED_BREP_SHAPE_REPRESENTATION ( 'WCP-0910', ( #77, #134 ), #56 ) ;
#133 = AXIS2_PLACEMENT_3D ( 'NONE', #15, #156, #143 ) ;
#134 = AXIS2_PLACEMENT_3D ( 'NONE', #150, #60, #94 ) ;
#135 =( NAMED_UNIT ( * ) PLANE_ANGLE_UNIT ( ) SI_UNIT ( $, .RADIAN. ) );
#136 = ORIENTED_EDGE ( 'NONE', *, *, #46, .F. ) ;
#137 = CARTESIAN_POINT ( 'NONE',  ( 18.00000000000000000, 0.000000000000000000, 0.000000000000000000 ) ) ;
#138 = EDGE_LOOP ( 'NONE', ( #2, #29 ) ) ;
#139 = FACE_OUTER_BOUND ( 'NONE', #142, .T. ) ;
#140 = ORIENTED_EDGE ( 'NONE', *, *, #82, .F. ) ;
#141 = DIRECTION ( 'NONE',  ( 1.000000000000000000, 0.000000000000000000, 0.000000000000000000 ) ) ;
#142 = EDGE_LOOP ( 'NONE', ( #114, #179, #63, #101 ) ) ;
#143 = DIRECTION ( 'NONE',  ( 0.000000000000000000, 0.000000000000000000, -1.000000000000000000 ) ) ;
#144 = DIMENSIONAL_EXPONENTS ( 1.000000000000000000, 0.000000000000000000, 0.000000000000000000, 0.000000000000000000, 0.000000000000000000, 0.000000000000000000, 0.000000000000000000 ) ;
#145 = FILL_AREA_STYLE ('',( #76 ) ) ;
#146 =( LENGTH_UNIT ( ) NAMED_UNIT ( * ) SI_UNIT ( $, .METRE. ) );
#147 = APPLICATION_CONTEXT ( 'automotive_design' ) ;
#148 =( GEOMETRIC_REPRESENTATION_CONTEXT ( 3 ) GLOBAL_UNCERTAINTY_ASSIGNED_CONTEXT ( ( #149 ) ) GLOBAL_UNIT_ASSIGNED_CONTEXT ( ( #34, #71, #18 ) ) REPRESENTATION_CONTEXT ( 'NONE', 'WORKASPACE' ) );
#149 = UNCERTAINTY_MEASURE_WITH_UNIT (LENGTH_MEASURE( 1.000000000000000082E-05 ), #34, 'distance_accuracy_value', 'NONE');
#150 = CARTESIAN_POINT ( 'NONE',  ( 0.000000000000000000, 0.000000000000000000, 0.000000000000000000 ) ) ;
#151 = EDGE_CURVE ( 'NONE', #97, #209, #117, .T. ) ;
#152 = EDGE_CURVE ( 'NONE', #102, #157, #8, .T. ) ;
#153 = AXIS2_PLACEMENT_3D ( 'NONE', #137, #32, #52 ) ;
#154 = CIRCLE ( 'NONE', #201, 0.1870000000000000551 ) ;
#155 = ORIENTED_EDGE ( 'NONE', *, *, #37, .T. ) ;
#156 = DIRECTION ( 'NONE',  ( 1.000000000000000000, 0.000000000000000000, 0.000000000000000000 ) ) ;
#157 = VERTEX_POINT ( 'NONE', #41 ) ;
#158 = DIRECTION ( 'NONE',  ( 0.000000000000000000, 0.000000000000000000, -1.000000000000000000 ) ) ;
#159 = ORIENTED_EDGE ( 'NONE', *, *, #82, .T. ) ;
#160 = CARTESIAN_POINT ( 'NONE',  ( -18.00000000000000000, 2.290089514405551281E-17, -0.1870000000000000551 ) ) ;
#161 = CARTESIAN_POINT ( 'NONE',  ( -18.00000000000000000, 0.000000000000000000, 0.000000000000000000 ) ) ;
#162 = SURFACE_STYLE_USAGE ( .BOTH. , #125 ) ;
#163 = PRESENTATION_LAYER_ASSIGNMENT (  '', '', ( #90 ) ) ;
#164 = DIRECTION ( 'NONE',  ( 0.000000000000000000, 0.000000000000000000, -1.000000000000000000 ) ) ;
#165 = PRESENTATION_STYLE_ASSIGNMENT (( #162 ) ) ;
#166 = PRESENTATION_STYLE_ASSIGNMENT (( #93 ) ) ;
#167 =( LENGTH_UNIT ( ) NAMED_UNIT ( * ) SI_UNIT ( $, .METRE. ) );
#168 = APPLICATION_PROTOCOL_DEFINITION ( 'draft international standard', 'automotive_design', 1998, #223 ) ;
#169 = EDGE_CURVE ( 'NONE', #102, #97, #75, .T. ) ;
#170 = APPLICATION_PROTOCOL_DEFINITION ( 'draft international standard', 'automotive_design', 1998, #147 ) ;
#171 = AXIS2_PLACEMENT_3D ( 'NONE', #7, #122, #33 ) ;
#172 = ORIENTED_EDGE ( 'NONE', *, *, #104, .T. ) ;
#173 = VERTEX_POINT ( 'NONE', #58 ) ;
#174 = ORIENTED_EDGE ( 'NONE', *, *, #46, .T. ) ;
#175 = AXIS2_PLACEMENT_3D ( 'NONE', #161, #111, #164 ) ;
#176 = PRODUCT ( 'WCP-0910', 'WCP-0910', '', ( #188 ) ) ;
#177 = DIRECTION ( 'NONE',  ( 0.000000000000000000, 0.000000000000000000, -1.000000000000000000 ) ) ;
#178 = DIRECTION ( 'NONE',  ( 1.000000000000000000, 0.000000000000000000, 0.000000000000000000 ) ) ;
#179 = ORIENTED_EDGE ( 'NONE', *, *, #169, .T. ) ;
#180 = ORIENTED_EDGE ( 'NONE', *, *, #45, .T. ) ;
#181 = MECHANICAL_DESIGN_GEOMETRIC_PRESENTATION_REPRESENTATION (  '', ( #220 ), #148 ) ;
#182 = DIRECTION ( 'NONE',  ( -1.000000000000000000, -0.000000000000000000, -0.000000000000000000 ) ) ;
#183 = VECTOR ( 'NONE', #89, 39.37007874015748143 ) ;
#184 = CARTESIAN_POINT ( 'NONE',  ( 18.00000000000000000, 2.290089514405551281E-17, -0.1870000000000000551 ) ) ;
#185 = DIRECTION ( 'NONE',  ( -1.000000000000000000, -0.000000000000000000, -0.000000000000000000 ) ) ;
#186 = LENGTH_MEASURE_WITH_UNIT ( LENGTH_MEASURE( 0.02539999999999999897 ), #39 );
#187 = SURFACE_STYLE_FILL_AREA ( #130 ) ;
#188 = PRODUCT_CONTEXT ( 'NONE', #147, 'mechanical' ) ;
#189 = ORIENTED_EDGE ( 'NONE', *, *, #37, .F. ) ;
#190 = CIRCLE ( 'NONE', #86, 0.09800000000000000377 ) ;
#191 = VERTEX_POINT ( 'NONE', #12 ) ;
#192 = ADVANCED_FACE ( 'NONE', ( #107, #24 ), #10, .T. ) ;
#193 = CIRCLE ( 'NONE', #221, 0.09800000000000000377 ) ;
#194 = AXIS2_PLACEMENT_3D ( 'NONE', #129, #21, #202 ) ;
#195 = DIRECTION ( 'NONE',  ( 0.000000000000000000, 0.000000000000000000, 1.000000000000000000 ) ) ;
#196 = ORIENTED_EDGE ( 'NONE', *, *, #66, .T. ) ;
#197 = LENGTH_MEASURE_WITH_UNIT ( LENGTH_MEASURE( 0.02539999999999999897 ), #146 );
#198 = DIRECTION ( 'NONE',  ( 1.000000000000000000, 0.000000000000000000, 0.000000000000000000 ) ) ;
#199 = CARTESIAN_POINT ( 'NONE',  ( 18.00000000000000000, 0.000000000000000000, 0.000000000000000000 ) ) ;
#200 = SURFACE_STYLE_FILL_AREA ( #145 ) ;
#201 = AXIS2_PLACEMENT_3D ( 'NONE', #25, #92, #40 ) ;
#202 = DIRECTION ( 'NONE',  ( 0.000000000000000000, 0.000000000000000000, -1.000000000000000000 ) ) ;
#203 =( CONVERSION_BASED_UNIT ( 'INCH', #186 ) LENGTH_UNIT ( ) NAMED_UNIT ( #110 ) );
#204 = VECTOR ( 'NONE', #128, 39.37007874015748143 ) ;
#205 =( CONVERSION_BASED_UNIT ( 'INCH', #219 ) LENGTH_UNIT ( ) NAMED_UNIT ( #144 ) );
#206 = ORIENTED_EDGE ( 'NONE', *, *, #169, .F. ) ;
#207 = DIRECTION ( 'NONE',  ( 1.000000000000000000, 0.000000000000000000, 0.000000000000000000 ) ) ;
#208 = CARTESIAN_POINT ( 'NONE',  ( 18.00000000000000000, 0.000000000000000000, 0.000000000000000000 ) ) ;
#209 = VERTEX_POINT ( 'NONE', #91 ) ;
#210 = DIRECTION ( 'NONE',  ( 0.000000000000000000, 0.000000000000000000, -1.000000000000000000 ) ) ;
#211 = CARTESIAN_POINT ( 'NONE',  ( -18.00000000000000000, 0.000000000000000000, 0.000000000000000000 ) ) ;
#212 = CARTESIAN_POINT ( 'NONE',  ( 18.00000000000000000, 1.200153863164406105E-17, -0.09800000000000000377 ) ) ;
#213 = ADVANCED_FACE ( 'NONE', ( #87, #214 ), #78, .F. ) ;
#214 = FACE_BOUND ( 'NONE', #17, .T. ) ;
#215 = CYLINDRICAL_SURFACE ( 'NONE', #51, 0.09800000000000000377 ) ;
#216 = DIRECTION ( 'NONE',  ( -1.000000000000000000, -0.000000000000000000, -0.000000000000000000 ) ) ;
#217 = LINE ( 'NONE', #212, #204 ) ;
#218 = FILL_AREA_STYLE_COLOUR ( '', #74 ) ;
#219 = LENGTH_MEASURE_WITH_UNIT ( LENGTH_MEASURE( 0.02539999999999999897 ), #167 );
#220 = STYLED_ITEM ( 'NONE', ( #165 ), #77 ) ;
#221 = AXIS2_PLACEMENT_3D ( 'NONE', #208, #19, #53 ) ;
#222 = VERTEX_POINT ( 'NONE', #127 ) ;
#223 = APPLICATION_CONTEXT ( 'automotive_design' ) ;
ENDSEC;
END-ISO-10303-21;
