ISO-10303-21;
HEADER;
FILE_DESCRIPTION (( 'STEP AP214' ),
    '1' );
FILE_NAME ('WCP-0886 Rev1.step',
    '2023-12-27T21:23:37',
    ( '' ),
    ( '' ),
    'SwSTEP 2.0',
    'SolidWorks 2022',
    '' );
FILE_SCHEMA (( 'AUTOMOTIVE_DESIGN' ));
ENDSEC;

DATA;
#1 = VECTOR ( 'NONE', #143, 39.37007874015748143 ) ;
#2 =( LENGTH_UNIT ( ) NAMED_UNIT ( * ) SI_UNIT ( $, .METRE. ) );
#3 = EDGE_CURVE ( 'NONE', #69, #67, #117, .T. ) ;
#4 = ORIENTED_EDGE ( 'NONE', *, *, #197, .F. ) ;
#5 = LINE ( 'NONE', #71, #107 ) ;
#6 = CARTESIAN_POINT ( 'NONE',  ( 0.000000000000000000, 0.1250000000000000000, 0.000000000000000000 ) ) ;
#7 = VECTOR ( 'NONE', #8, 39.37007874015748143 ) ;
#8 = DIRECTION ( 'NONE',  ( -0.000000000000000000, -1.000000000000000000, -0.000000000000000000 ) ) ;
#9 = DIRECTION ( 'NONE',  ( 1.000000000000000000, 0.000000000000000000, 3.642463991552350958E-16 ) ) ;
#10 = FILL_AREA_STYLE_COLOUR ( '', #135 ) ;
#11 = VECTOR ( 'NONE', #136, 39.37007874015748143 ) ;
#12 = PRODUCT_CONTEXT ( 'NONE', #34, 'mechanical' ) ;
#13 = ADVANCED_FACE ( 'NONE', ( #140 ), #158, .F. ) ;
#14 = EDGE_LOOP ( 'NONE', ( #95, #169, #154, #192 ) ) ;
#15 = DIRECTION ( 'NONE',  ( -1.000000000000000000, 0.000000000000000000, 9.106159978880878627E-17 ) ) ;
#16 = CLOSED_SHELL ( 'NONE', ( #13, #29, #20, #180, #92, #166 ) ) ;
#17 = ORIENTED_EDGE ( 'NONE', *, *, #56, .T. ) ;
#18 = LINE ( 'NONE', #102, #1 ) ;
#19 = CARTESIAN_POINT ( 'NONE',  ( 5.999999999999996447, -0.1250000000000000000, -11.99999999999999467 ) ) ;
#20 = ADVANCED_FACE ( 'NONE', ( #210 ), #141, .F. ) ;
#21 = VECTOR ( 'NONE', #84, 39.37007874015748143 ) ;
#22 = DIRECTION ( 'NONE',  ( 0.000000000000000000, -0.000000000000000000, -1.000000000000000000 ) ) ;
#23 = CARTESIAN_POINT ( 'NONE',  ( 5.999999999999998224, -0.1250000000000000000, 12.00000000000000355 ) ) ;
#24 = DIMENSIONAL_EXPONENTS ( 1.000000000000000000, 0.000000000000000000, 0.000000000000000000, 0.000000000000000000, 0.000000000000000000, 0.000000000000000000, 0.000000000000000000 ) ;
#25 = CARTESIAN_POINT ( 'NONE',  ( 5.999999999999996447, 0.1250000000000000000, -11.99999999999999467 ) ) ;
#26 = MECHANICAL_DESIGN_GEOMETRIC_PRESENTATION_REPRESENTATION (  '', ( #200 ), #165 ) ;
#27 = MANIFOLD_SOLID_BREP ( 'Boss-Extrude1', #16 ) ;
#28 = PRODUCT_DEFINITION_SHAPE ( 'NONE', 'NONE',  #79 ) ;
#29 = ADVANCED_FACE ( 'NONE', ( #160 ), #188, .F. ) ;
#30 = SURFACE_STYLE_USAGE ( .BOTH. , #182 ) ;
#31 = VERTEX_POINT ( 'NONE', #196 ) ;
#32 = PRODUCT_DEFINITION_FORMATION_WITH_SPECIFIED_SOURCE ( 'ANY', '', #204, .NOT_KNOWN. ) ;
#33 = CARTESIAN_POINT ( 'NONE',  ( 5.999999999999996447, -0.1250000000000000000, -11.99999999999999467 ) ) ;
#34 = APPLICATION_CONTEXT ( 'automotive_design' ) ;
#35 = DIRECTION ( 'NONE',  ( 9.106159978880878627E-17, 0.000000000000000000, 1.000000000000000000 ) ) ;
#36 = EDGE_LOOP ( 'NONE', ( #116, #155, #55, #190 ) ) ;
#37 = PRESENTATION_LAYER_ASSIGNMENT (  '', '', ( #129 ) ) ;
#38 = SURFACE_SIDE_STYLE ('',( #173 ) ) ;
#39 = CARTESIAN_POINT ( 'NONE',  ( -6.000000000000004441, -0.1250000000000000000, -11.99999999999999822 ) ) ;
#40 = EDGE_CURVE ( 'NONE', #187, #68, #18, .T. ) ;
#41 = AXIS2_PLACEMENT_3D ( 'NONE', #76, #131, #100 ) ;
#42 = PLANE ( 'NONE',  #99 ) ;
#43 = DIRECTION ( 'NONE',  ( 0.000000000000000000, -1.000000000000000000, 0.000000000000000000 ) ) ;
#44 = LINE ( 'NONE', #106, #21 ) ;
#45 = FILL_AREA_STYLE ('',( #10 ) ) ;
#46 = AXIS2_PLACEMENT_3D ( 'NONE', #123, #43, #134 ) ;
#47 = LINE ( 'NONE', #138, #62 ) ;
#48 = VECTOR ( 'NONE', #211, 39.37007874015748143 ) ;
#49 =( NAMED_UNIT ( * ) PLANE_ANGLE_UNIT ( ) SI_UNIT ( $, .RADIAN. ) );
#50 = PRODUCT_RELATED_PRODUCT_CATEGORY ( 'part', '', ( #204 ) ) ;
#51 = ORIENTED_EDGE ( 'NONE', *, *, #202, .F. ) ;
#52 = FILL_AREA_STYLE_COLOUR ( '', #82 ) ;
#53 = ORIENTED_EDGE ( 'NONE', *, *, #209, .F. ) ;
#54 = ORIENTED_EDGE ( 'NONE', *, *, #209, .T. ) ;
#55 = ORIENTED_EDGE ( 'NONE', *, *, #162, .T. ) ;
#56 = EDGE_CURVE ( 'NONE', #133, #78, #174, .T. ) ;
#57 = DIRECTION ( 'NONE',  ( 0.000000000000000000, -1.000000000000000000, 0.000000000000000000 ) ) ;
#58 = LENGTH_MEASURE_WITH_UNIT ( LENGTH_MEASURE( 0.02539999999999999897 ), #2 );
#59 = DIRECTION ( 'NONE',  ( -9.106159978880878627E-17, -0.000000000000000000, -1.000000000000000000 ) ) ;
#60 = FACE_OUTER_BOUND ( 'NONE', #83, .T. ) ;
#61 = APPLICATION_PROTOCOL_DEFINITION ( 'draft international standard', 'automotive_design', 1998, #34 ) ;
#62 = VECTOR ( 'NONE', #65, 39.37007874015748143 ) ;
#63 = DIRECTION ( 'NONE',  ( -0.000000000000000000, -1.000000000000000000, -0.000000000000000000 ) ) ;
#64 =( LENGTH_UNIT ( ) NAMED_UNIT ( * ) SI_UNIT ( $, .METRE. ) );
#65 = DIRECTION ( 'NONE',  ( -0.000000000000000000, -1.000000000000000000, -0.000000000000000000 ) ) ;
#66 = ORIENTED_EDGE ( 'NONE', *, *, #70, .F. ) ;
#67 = VERTEX_POINT ( 'NONE', #39 ) ;
#68 = VERTEX_POINT ( 'NONE', #163 ) ;
#69 = VERTEX_POINT ( 'NONE', #19 ) ;
#70 = EDGE_CURVE ( 'NONE', #78, #69, #145, .T. ) ;
#71 = CARTESIAN_POINT ( 'NONE',  ( -6.000000000000004441, -0.1250000000000000000, -11.99999999999999822 ) ) ;
#72 = LINE ( 'NONE', #87, #122 ) ;
#73 = CARTESIAN_POINT ( 'NONE',  ( -6.000000000000002665, -0.1250000000000000000, 12.00000000000000355 ) ) ;
#74 = CARTESIAN_POINT ( 'NONE',  ( -6.000000000000004441, 0.1250000000000000000, -11.99999999999999822 ) ) ;
#75 = DIRECTION ( 'NONE',  ( 1.000000000000000000, 0.000000000000000000, 0.000000000000000000 ) ) ;
#76 = CARTESIAN_POINT ( 'NONE',  ( -6.000000000000004441, 0.1250000000000000000, -11.99999999999999822 ) ) ;
#77 = VECTOR ( 'NONE', #147, 39.37007874015748143 ) ;
#78 = VERTEX_POINT ( 'NONE', #23 ) ;
#79 = PRODUCT_DEFINITION ( 'UNKNOWN', '', #32, #156 ) ;
#80 = ORIENTED_EDGE ( 'NONE', *, *, #207, .T. ) ;
#81 = PRESENTATION_STYLE_ASSIGNMENT (( #157 ) ) ;
#82 = COLOUR_RGB ( '',1.000000000000000000, 1.000000000000000000, 1.000000000000000000 ) ;
#83 = EDGE_LOOP ( 'NONE', ( #51, #114, #66, #113 ) ) ;
#84 = DIRECTION ( 'NONE',  ( -1.000000000000000000, 0.000000000000000000, -3.642463991552351451E-16 ) ) ;
#85 = APPLICATION_CONTEXT ( 'automotive_design' ) ;
#86 = CARTESIAN_POINT ( 'NONE',  ( -6.000000000000002665, 0.1250000000000000000, 12.00000000000000355 ) ) ;
#87 = CARTESIAN_POINT ( 'NONE',  ( 5.999999999999998224, 0.1250000000000000000, 12.00000000000000355 ) ) ;
#88 = EDGE_CURVE ( 'NONE', #31, #78, #161, .T. ) ;
#89 =( NAMED_UNIT ( * ) SI_UNIT ( $, .STERADIAN. ) SOLID_ANGLE_UNIT ( ) );
#90 = AXIS2_PLACEMENT_3D ( 'NONE', #203, #167, #75 ) ;
#91 = LINE ( 'NONE', #108, #205 ) ;
#92 = ADVANCED_FACE ( 'NONE', ( #195 ), #42, .F. ) ;
#93 = PRESENTATION_STYLE_ASSIGNMENT (( #30 ) ) ;
#94 = ORIENTED_EDGE ( 'NONE', *, *, #3, .T. ) ;
#95 = ORIENTED_EDGE ( 'NONE', *, *, #70, .T. ) ;
#96 = FILL_AREA_STYLE ('',( #52 ) ) ;
#97 = UNCERTAINTY_MEASURE_WITH_UNIT (LENGTH_MEASURE( 1.000000000000000082E-05 ), #150, 'distance_accuracy_value', 'NONE');
#98 = EDGE_LOOP ( 'NONE', ( #142, #132, #139, #54 ) ) ;
#99 = AXIS2_PLACEMENT_3D ( 'NONE', #6, #57, #22 ) ;
#100 = DIRECTION ( 'NONE',  ( -9.106159978880877395E-17, 0.000000000000000000, -1.000000000000000000 ) ) ;
#101 = CARTESIAN_POINT ( 'NONE',  ( 5.999999999999998224, 0.1250000000000000000, 12.00000000000000355 ) ) ;
#102 = CARTESIAN_POINT ( 'NONE',  ( -6.000000000000004441, 0.1250000000000000000, -11.99999999999999822 ) ) ;
#103 = PRESENTATION_LAYER_ASSIGNMENT (  '', '', ( #200 ) ) ;
#104 = LINE ( 'NONE', #86, #7 ) ;
#105 = FACE_OUTER_BOUND ( 'NONE', #208, .T. ) ;
#106 = CARTESIAN_POINT ( 'NONE',  ( 5.999999999999996447, 0.1250000000000000000, -11.99999999999999467 ) ) ;
#107 = VECTOR ( 'NONE', #125, 39.37007874015748143 ) ;
#108 = CARTESIAN_POINT ( 'NONE',  ( -6.000000000000004441, 0.1250000000000000000, -11.99999999999999822 ) ) ;
#109 = EDGE_CURVE ( 'NONE', #68, #133, #104, .T. ) ;
#110 =( CONVERSION_BASED_UNIT ( 'INCH', #128 ) LENGTH_UNIT ( ) NAMED_UNIT ( #24 ) );
#111 =( NAMED_UNIT ( * ) PLANE_ANGLE_UNIT ( ) SI_UNIT ( $, .RADIAN. ) );
#112 = VECTOR ( 'NONE', #59, 39.37007874015748143 ) ;
#113 = ORIENTED_EDGE ( 'NONE', *, *, #56, .F. ) ;
#114 = ORIENTED_EDGE ( 'NONE', *, *, #3, .F. ) ;
#115 = ORIENTED_EDGE ( 'NONE', *, *, #109, .T. ) ;
#116 = ORIENTED_EDGE ( 'NONE', *, *, #40, .T. ) ;
#117 = LINE ( 'NONE', #33, #48 ) ;
#118 = DIRECTION ( 'NONE',  ( -1.000000000000000000, 0.000000000000000000, -0.000000000000000000 ) ) ;
#119 =( CONVERSION_BASED_UNIT ( 'INCH', #58 ) LENGTH_UNIT ( ) NAMED_UNIT ( #177 ) );
#120 = EDGE_CURVE ( 'NONE', #68, #31, #72, .T. ) ;
#121 = CARTESIAN_POINT ( 'NONE',  ( 5.999999999999998224, 0.1250000000000000000, 12.00000000000000355 ) ) ;
#122 = VECTOR ( 'NONE', #146, 39.37007874015748143 ) ;
#123 = CARTESIAN_POINT ( 'NONE',  ( 0.000000000000000000, -0.1250000000000000000, 0.000000000000000000 ) ) ;
#124 = CARTESIAN_POINT ( 'NONE',  ( 5.999999999999996447, 0.1250000000000000000, -11.99999999999999467 ) ) ;
#125 = DIRECTION ( 'NONE',  ( 9.106159978880878627E-17, 0.000000000000000000, 1.000000000000000000 ) ) ;
#126 =( GEOMETRIC_REPRESENTATION_CONTEXT ( 3 ) GLOBAL_UNCERTAINTY_ASSIGNED_CONTEXT ( ( #206 ) ) GLOBAL_UNIT_ASSIGNED_CONTEXT ( ( #110, #49, #168 ) ) REPRESENTATION_CONTEXT ( 'NONE', 'WORKASPACE' ) );
#127 = SHAPE_DEFINITION_REPRESENTATION ( #28, #159 ) ;
#128 = LENGTH_MEASURE_WITH_UNIT ( LENGTH_MEASURE( 0.02539999999999999897 ), #149 );
#129 = STYLED_ITEM ( 'NONE', ( #93 ), #159 ) ;
#130 = EDGE_LOOP ( 'NONE', ( #17, #170, #172, #115 ) ) ;
#131 = DIRECTION ( 'NONE',  ( 1.000000000000000000, 0.000000000000000000, -9.106159978880877395E-17 ) ) ;
#132 = ORIENTED_EDGE ( 'NONE', *, *, #109, .F. ) ;
#133 = VERTEX_POINT ( 'NONE', #73 ) ;
#134 = DIRECTION ( 'NONE',  ( 0.000000000000000000, -0.000000000000000000, -1.000000000000000000 ) ) ;
#135 = COLOUR_RGB ( '',1.000000000000000000, 1.000000000000000000, 1.000000000000000000 ) ;
#136 = DIRECTION ( 'NONE',  ( -0.000000000000000000, -1.000000000000000000, -0.000000000000000000 ) ) ;
#137 = LINE ( 'NONE', #199, #112 ) ;
#138 = CARTESIAN_POINT ( 'NONE',  ( 5.999999999999996447, 0.1250000000000000000, -11.99999999999999467 ) ) ;
#139 = ORIENTED_EDGE ( 'NONE', *, *, #40, .F. ) ;
#140 = FACE_OUTER_BOUND ( 'NONE', #98, .T. ) ;
#141 = PLANE ( 'NONE',  #151 ) ;
#142 = ORIENTED_EDGE ( 'NONE', *, *, #202, .T. ) ;
#143 = DIRECTION ( 'NONE',  ( 9.106159978880878627E-17, 0.000000000000000000, 1.000000000000000000 ) ) ;
#144 = DIRECTION ( 'NONE',  ( -9.106159978880878627E-17, -0.000000000000000000, -1.000000000000000000 ) ) ;
#145 = LINE ( 'NONE', #201, #194 ) ;
#146 = DIRECTION ( 'NONE',  ( 1.000000000000000000, -0.000000000000000000, -0.000000000000000000 ) ) ;
#147 = DIRECTION ( 'NONE',  ( 1.000000000000000000, -0.000000000000000000, -0.000000000000000000 ) ) ;
#148 = MECHANICAL_DESIGN_GEOMETRIC_PRESENTATION_REPRESENTATION (  '', ( #129 ), #153 ) ;
#149 =( LENGTH_UNIT ( ) NAMED_UNIT ( * ) SI_UNIT ( $, .METRE. ) );
#150 =( CONVERSION_BASED_UNIT ( 'INCH', #184 ) LENGTH_UNIT ( ) NAMED_UNIT ( #198 ) );
#151 = AXIS2_PLACEMENT_3D ( 'NONE', #171, #15, #35 ) ;
#152 = APPLICATION_PROTOCOL_DEFINITION ( 'draft international standard', 'automotive_design', 1998, #85 ) ;
#153 =( GEOMETRIC_REPRESENTATION_CONTEXT ( 3 ) GLOBAL_UNCERTAINTY_ASSIGNED_CONTEXT ( ( #97 ) ) GLOBAL_UNIT_ASSIGNED_CONTEXT ( ( #150, #111, #181 ) ) REPRESENTATION_CONTEXT ( 'NONE', 'WORKASPACE' ) );
#154 = ORIENTED_EDGE ( 'NONE', *, *, #162, .F. ) ;
#155 = ORIENTED_EDGE ( 'NONE', *, *, #120, .T. ) ;
#156 = PRODUCT_DEFINITION_CONTEXT ( 'detailed design', #85, 'design' ) ;
#157 = SURFACE_STYLE_USAGE ( .BOTH. , #38 ) ;
#158 = PLANE ( 'NONE',  #41 ) ;
#159 = ADVANCED_BREP_SHAPE_REPRESENTATION ( 'WCP-0886 Rev1', ( #27, #90 ), #126 ) ;
#160 = FACE_OUTER_BOUND ( 'NONE', #130, .T. ) ;
#161 = LINE ( 'NONE', #101, #11 ) ;
#162 = EDGE_CURVE ( 'NONE', #31, #191, #137, .T. ) ;
#163 = CARTESIAN_POINT ( 'NONE',  ( -6.000000000000002665, 0.1250000000000000000, 12.00000000000000355 ) ) ;
#164 = PLANE ( 'NONE',  #189 ) ;
#165 =( GEOMETRIC_REPRESENTATION_CONTEXT ( 3 ) GLOBAL_UNCERTAINTY_ASSIGNED_CONTEXT ( ( #183 ) ) GLOBAL_UNIT_ASSIGNED_CONTEXT ( ( #119, #175, #89 ) ) REPRESENTATION_CONTEXT ( 'NONE', 'WORKASPACE' ) );
#166 = ADVANCED_FACE ( 'NONE', ( #60 ), #178, .T. ) ;
#167 = DIRECTION ( 'NONE',  ( 0.000000000000000000, 0.000000000000000000, 1.000000000000000000 ) ) ;
#168 =( NAMED_UNIT ( * ) SI_UNIT ( $, .STERADIAN. ) SOLID_ANGLE_UNIT ( ) );
#169 = ORIENTED_EDGE ( 'NONE', *, *, #207, .F. ) ;
#170 = ORIENTED_EDGE ( 'NONE', *, *, #88, .F. ) ;
#171 = CARTESIAN_POINT ( 'NONE',  ( 5.999999999999996447, 0.1250000000000000000, -11.99999999999999467 ) ) ;
#172 = ORIENTED_EDGE ( 'NONE', *, *, #120, .F. ) ;
#173 = SURFACE_STYLE_FILL_AREA ( #96 ) ;
#174 = LINE ( 'NONE', #176, #77 ) ;
#175 =( NAMED_UNIT ( * ) PLANE_ANGLE_UNIT ( ) SI_UNIT ( $, .RADIAN. ) );
#176 = CARTESIAN_POINT ( 'NONE',  ( 5.999999999999998224, -0.1250000000000000000, 12.00000000000000355 ) ) ;
#177 = DIMENSIONAL_EXPONENTS ( 1.000000000000000000, 0.000000000000000000, 0.000000000000000000, 0.000000000000000000, 0.000000000000000000, 0.000000000000000000, 0.000000000000000000 ) ;
#178 = PLANE ( 'NONE',  #46 ) ;
#179 = DIRECTION ( 'NONE',  ( -3.642463991552350958E-16, 0.000000000000000000, 1.000000000000000000 ) ) ;
#180 = ADVANCED_FACE ( 'NONE', ( #105 ), #164, .F. ) ;
#181 =( NAMED_UNIT ( * ) SI_UNIT ( $, .STERADIAN. ) SOLID_ANGLE_UNIT ( ) );
#182 = SURFACE_SIDE_STYLE ('',( #186 ) ) ;
#183 = UNCERTAINTY_MEASURE_WITH_UNIT (LENGTH_MEASURE( 1.000000000000000082E-05 ), #119, 'distance_accuracy_value', 'NONE');
#184 = LENGTH_MEASURE_WITH_UNIT ( LENGTH_MEASURE( 0.02539999999999999897 ), #64 );
#185 = AXIS2_PLACEMENT_3D ( 'NONE', #121, #193, #118 ) ;
#186 = SURFACE_STYLE_FILL_AREA ( #45 ) ;
#187 = VERTEX_POINT ( 'NONE', #74 ) ;
#188 = PLANE ( 'NONE',  #185 ) ;
#189 = AXIS2_PLACEMENT_3D ( 'NONE', #25, #179, #9 ) ;
#190 = ORIENTED_EDGE ( 'NONE', *, *, #197, .T. ) ;
#191 = VERTEX_POINT ( 'NONE', #124 ) ;
#192 = ORIENTED_EDGE ( 'NONE', *, *, #88, .T. ) ;
#193 = DIRECTION ( 'NONE',  ( 0.000000000000000000, 0.000000000000000000, -1.000000000000000000 ) ) ;
#194 = VECTOR ( 'NONE', #144, 39.37007874015748143 ) ;
#195 = FACE_OUTER_BOUND ( 'NONE', #36, .T. ) ;
#196 = CARTESIAN_POINT ( 'NONE',  ( 5.999999999999998224, 0.1250000000000000000, 12.00000000000000355 ) ) ;
#197 = EDGE_CURVE ( 'NONE', #191, #187, #44, .T. ) ;
#198 = DIMENSIONAL_EXPONENTS ( 1.000000000000000000, 0.000000000000000000, 0.000000000000000000, 0.000000000000000000, 0.000000000000000000, 0.000000000000000000, 0.000000000000000000 ) ;
#199 = CARTESIAN_POINT ( 'NONE',  ( 5.999999999999996447, 0.1250000000000000000, -11.99999999999999467 ) ) ;
#200 = STYLED_ITEM ( 'NONE', ( #81 ), #27 ) ;
#201 = CARTESIAN_POINT ( 'NONE',  ( 5.999999999999996447, -0.1250000000000000000, -11.99999999999999467 ) ) ;
#202 = EDGE_CURVE ( 'NONE', #67, #133, #5, .T. ) ;
#203 = CARTESIAN_POINT ( 'NONE',  ( 0.000000000000000000, 0.000000000000000000, 0.000000000000000000 ) ) ;
#204 = PRODUCT ( 'WCP-0886 Rev1', 'WCP-0886 Rev1', '', ( #12 ) ) ;
#205 = VECTOR ( 'NONE', #63, 39.37007874015748143 ) ;
#206 = UNCERTAINTY_MEASURE_WITH_UNIT (LENGTH_MEASURE( 1.000000000000000082E-05 ), #110, 'distance_accuracy_value', 'NONE');
#207 = EDGE_CURVE ( 'NONE', #191, #69, #47, .T. ) ;
#208 = EDGE_LOOP ( 'NONE', ( #94, #53, #4, #80 ) ) ;
#209 = EDGE_CURVE ( 'NONE', #187, #67, #91, .T. ) ;
#210 = FACE_OUTER_BOUND ( 'NONE', #14, .T. ) ;
#211 = DIRECTION ( 'NONE',  ( -1.000000000000000000, 0.000000000000000000, -3.642463991552351451E-16 ) ) ;
ENDSEC;
END-ISO-10303-21;
