ISO-10303-21;
HEADER;
FILE_DESCRIPTION (( 'STEP AP214' ),
    '1' );
FILE_NAME ('WCP-0885 Rev1.step',
    '2023-12-27T21:23:21',
    ( '' ),
    ( '' ),
    'SwSTEP 2.0',
    'SolidWorks 2022',
    '' );
FILE_SCHEMA (( 'AUTOMOTIVE_DESIGN' ));
ENDSEC;

DATA;
#1 = PRODUCT_DEFINITION ( 'UNKNOWN', '', #26, #200 ) ;
#2 = ORIENTED_EDGE ( 'NONE', *, *, #143, .F. ) ;
#3 = DIRECTION ( 'NONE',  ( 0.000000000000000000, -0.000000000000000000, -1.000000000000000000 ) ) ;
#4 = PLANE ( 'NONE',  #159 ) ;
#5 = CARTESIAN_POINT ( 'NONE',  ( 12.00000000000000355, 0.06250000000000000000, 24.00000000000000355 ) ) ;
#6 = CARTESIAN_POINT ( 'NONE',  ( 11.99999999999999645, 0.06250000000000000000, -24.00000000000000711 ) ) ;
#7 = PRESENTATION_LAYER_ASSIGNMENT (  '', '', ( #46 ) ) ;
#8 = CARTESIAN_POINT ( 'NONE',  ( -11.99999999999999822, 0.06250000000000000000, 24.00000000000000711 ) ) ;
#9 = CARTESIAN_POINT ( 'NONE',  ( 11.99999999999999645, 0.06250000000000000000, -24.00000000000000711 ) ) ;
#10 = PLANE ( 'NONE',  #106 ) ;
#11 = LENGTH_MEASURE_WITH_UNIT ( LENGTH_MEASURE( 0.02539999999999999897 ), #141 );
#12 = SURFACE_SIDE_STYLE ('',( #147 ) ) ;
#13 = DIMENSIONAL_EXPONENTS ( 1.000000000000000000, 0.000000000000000000, 0.000000000000000000, 0.000000000000000000, 0.000000000000000000, 0.000000000000000000, 0.000000000000000000 ) ;
#14 = EDGE_CURVE ( 'NONE', #203, #97, #169, .T. ) ;
#15 = FILL_AREA_STYLE ('',( #193 ) ) ;
#16 = ORIENTED_EDGE ( 'NONE', *, *, #192, .T. ) ;
#17 = FACE_OUTER_BOUND ( 'NONE', #175, .T. ) ;
#18 = COLOUR_RGB ( '',0.2980392156862745057, 0.2980392156862745057, 0.2980392156862745057 ) ;
#19 = CARTESIAN_POINT ( 'NONE',  ( 11.99999999999999645, 0.06250000000000000000, -24.00000000000000711 ) ) ;
#20 = CARTESIAN_POINT ( 'NONE',  ( 12.00000000000000355, -0.06250000000000000000, 24.00000000000000355 ) ) ;
#21 = FACE_OUTER_BOUND ( 'NONE', #63, .T. ) ;
#22 = VECTOR ( 'NONE', #114, 39.37007874015748143 ) ;
#23 = CARTESIAN_POINT ( 'NONE',  ( 11.99999999999999645, 0.06250000000000000000, -24.00000000000000711 ) ) ;
#24 = CARTESIAN_POINT ( 'NONE',  ( -12.00000000000000533, -0.06250000000000000000, -23.99999999999999645 ) ) ;
#25 = EDGE_CURVE ( 'NONE', #196, #128, #133, .T. ) ;
#26 = PRODUCT_DEFINITION_FORMATION_WITH_SPECIFIED_SOURCE ( 'ANY', '', #57, .NOT_KNOWN. ) ;
#27 = COLOUR_RGB ( '',0.2980392156862745057, 0.2980392156862745057, 0.2980392156862745057 ) ;
#28 = DIRECTION ( 'NONE',  ( -1.365923996832131116E-16, -0.000000000000000000, -1.000000000000000000 ) ) ;
#29 = ORIENTED_EDGE ( 'NONE', *, *, #83, .F. ) ;
#30 = SURFACE_STYLE_USAGE ( .BOTH. , #12 ) ;
#31 = APPLICATION_PROTOCOL_DEFINITION ( 'draft international standard', 'automotive_design', 1998, #41 ) ;
#32 = ORIENTED_EDGE ( 'NONE', *, *, #209, .T. ) ;
#33 = VECTOR ( 'NONE', #138, 39.37007874015748143 ) ;
#34 = PLANE ( 'NONE',  #121 ) ;
#35 = EDGE_CURVE ( 'NONE', #97, #196, #51, .T. ) ;
#36 = LINE ( 'NONE', #53, #76 ) ;
#37 = CARTESIAN_POINT ( 'NONE',  ( 0.000000000000000000, 0.06250000000000000000, 0.000000000000000000 ) ) ;
#38 = DIRECTION ( 'NONE',  ( -1.000000000000000000, 0.000000000000000000, 1.365923996832131116E-16 ) ) ;
#39 = FILL_AREA_STYLE ('',( #189 ) ) ;
#40 = CARTESIAN_POINT ( 'NONE',  ( 11.99999999999999645, -0.06250000000000000000, -24.00000000000000711 ) ) ;
#41 = APPLICATION_CONTEXT ( 'automotive_design' ) ;
#42 = DIRECTION ( 'NONE',  ( -1.000000000000000000, 0.000000000000000000, 3.642463991552351451E-16 ) ) ;
#43 = DIRECTION ( 'NONE',  ( 1.000000000000000000, -0.000000000000000000, -1.821231995776175725E-16 ) ) ;
#44 = MECHANICAL_DESIGN_GEOMETRIC_PRESENTATION_REPRESENTATION (  '', ( #180 ), #90 ) ;
#45 = ADVANCED_FACE ( 'NONE', ( #17 ), #34, .F. ) ;
#46 = STYLED_ITEM ( 'NONE', ( #95 ), #132 ) ;
#47 = VERTEX_POINT ( 'NONE', #5 ) ;
#48 = APPLICATION_CONTEXT ( 'automotive_design' ) ;
#49 = AXIS2_PLACEMENT_3D ( 'NONE', #202, #116, #183 ) ;
#50 = FACE_OUTER_BOUND ( 'NONE', #66, .T. ) ;
#51 = LINE ( 'NONE', #86, #22 ) ;
#52 = DIRECTION ( 'NONE',  ( 1.365923996832131116E-16, 0.000000000000000000, 1.000000000000000000 ) ) ;
#53 = CARTESIAN_POINT ( 'NONE',  ( 12.00000000000000355, 0.06250000000000000000, 24.00000000000000355 ) ) ;
#54 = PRODUCT_RELATED_PRODUCT_CATEGORY ( 'part', '', ( #57 ) ) ;
#55 = SURFACE_SIDE_STYLE ('',( #173 ) ) ;
#56 = LINE ( 'NONE', #9, #129 ) ;
#57 = PRODUCT ( 'WCP-0885 Rev1', 'WCP-0885 Rev1', '', ( #164 ) ) ;
#58 = CARTESIAN_POINT ( 'NONE',  ( 12.00000000000000355, 0.06250000000000000000, 24.00000000000000355 ) ) ;
#59 = DIMENSIONAL_EXPONENTS ( 1.000000000000000000, 0.000000000000000000, 0.000000000000000000, 0.000000000000000000, 0.000000000000000000, 0.000000000000000000, 0.000000000000000000 ) ;
#60 = VECTOR ( 'NONE', #150, 39.37007874015748143 ) ;
#61 = EDGE_LOOP ( 'NONE', ( #96, #29, #80, #162 ) ) ;
#62 = DIRECTION ( 'NONE',  ( 0.000000000000000000, 0.000000000000000000, 1.000000000000000000 ) ) ;
#63 = EDGE_LOOP ( 'NONE', ( #145, #194, #65, #112 ) ) ;
#64 =( NAMED_UNIT ( * ) SI_UNIT ( $, .STERADIAN. ) SOLID_ANGLE_UNIT ( ) );
#65 = ORIENTED_EDGE ( 'NONE', *, *, #209, .F. ) ;
#66 = EDGE_LOOP ( 'NONE', ( #69, #134, #93, #126 ) ) ;
#67 = CARTESIAN_POINT ( 'NONE',  ( 12.00000000000000355, 0.06250000000000000000, 24.00000000000000355 ) ) ;
#68 = PLANE ( 'NONE',  #49 ) ;
#69 = ORIENTED_EDGE ( 'NONE', *, *, #163, .T. ) ;
#70 = LINE ( 'NONE', #58, #149 ) ;
#71 = VECTOR ( 'NONE', #87, 39.37007874015748143 ) ;
#72 =( LENGTH_UNIT ( ) NAMED_UNIT ( * ) SI_UNIT ( $, .METRE. ) );
#73 = CARTESIAN_POINT ( 'NONE',  ( 11.99999999999999645, 0.06250000000000000000, -24.00000000000000711 ) ) ;
#74 = EDGE_CURVE ( 'NONE', #203, #179, #199, .T. ) ;
#75 = CARTESIAN_POINT ( 'NONE',  ( 0.000000000000000000, -0.06250000000000000000, 0.000000000000000000 ) ) ;
#76 = VECTOR ( 'NONE', #101, 39.37007874015748143 ) ;
#77 =( NAMED_UNIT ( * ) PLANE_ANGLE_UNIT ( ) SI_UNIT ( $, .RADIAN. ) );
#78 = EDGE_CURVE ( 'NONE', #109, #179, #131, .T. ) ;
#79 = PRESENTATION_LAYER_ASSIGNMENT (  '', '', ( #180 ) ) ;
#80 = ORIENTED_EDGE ( 'NONE', *, *, #192, .F. ) ;
#81 = ORIENTED_EDGE ( 'NONE', *, *, #25, .F. ) ;
#82 = FACE_OUTER_BOUND ( 'NONE', #61, .T. ) ;
#83 = EDGE_CURVE ( 'NONE', #47, #109, #36, .T. ) ;
#84 = DIRECTION ( 'NONE',  ( 0.000000000000000000, -1.000000000000000000, 0.000000000000000000 ) ) ;
#85 = CARTESIAN_POINT ( 'NONE',  ( -11.99999999999999822, 0.06250000000000000000, 24.00000000000000711 ) ) ;
#86 = CARTESIAN_POINT ( 'NONE',  ( -12.00000000000000533, 0.06250000000000000000, -23.99999999999999645 ) ) ;
#87 = DIRECTION ( 'NONE',  ( -0.000000000000000000, -1.000000000000000000, -0.000000000000000000 ) ) ;
#88 =( CONVERSION_BASED_UNIT ( 'INCH', #11 ) LENGTH_UNIT ( ) NAMED_UNIT ( #13 ) );
#89 = CARTESIAN_POINT ( 'NONE',  ( -11.99999999999999822, -0.06250000000000000000, 24.00000000000000711 ) ) ;
#90 =( GEOMETRIC_REPRESENTATION_CONTEXT ( 3 ) GLOBAL_UNCERTAINTY_ASSIGNED_CONTEXT ( ( #195 ) ) GLOBAL_UNIT_ASSIGNED_CONTEXT ( ( #88, #155, #187 ) ) REPRESENTATION_CONTEXT ( 'NONE', 'WORKASPACE' ) );
#91 = VECTOR ( 'NONE', #117, 39.37007874015748143 ) ;
#92 = CARTESIAN_POINT ( 'NONE',  ( 0.000000000000000000, 0.000000000000000000, 0.000000000000000000 ) ) ;
#93 = ORIENTED_EDGE ( 'NONE', *, *, #14, .F. ) ;
#94 = PRODUCT_DEFINITION_SHAPE ( 'NONE', 'NONE',  #1 ) ;
#95 = PRESENTATION_STYLE_ASSIGNMENT (( #30 ) ) ;
#96 = ORIENTED_EDGE ( 'NONE', *, *, #143, .T. ) ;
#97 = VERTEX_POINT ( 'NONE', #182 ) ;
#98 = ADVANCED_FACE ( 'NONE', ( #103 ), #153, .F. ) ;
#99 = ORIENTED_EDGE ( 'NONE', *, *, #78, .T. ) ;
#100 = CARTESIAN_POINT ( 'NONE',  ( 11.99999999999999645, 0.06250000000000000000, -24.00000000000000711 ) ) ;
#101 = DIRECTION ( 'NONE',  ( -0.000000000000000000, -1.000000000000000000, -0.000000000000000000 ) ) ;
#102 = ORIENTED_EDGE ( 'NONE', *, *, #74, .F. ) ;
#103 = FACE_OUTER_BOUND ( 'NONE', #177, .T. ) ;
#104 = LENGTH_MEASURE_WITH_UNIT ( LENGTH_MEASURE( 0.02539999999999999897 ), #72 );
#105 = SURFACE_STYLE_USAGE ( .BOTH. , #55 ) ;
#106 = AXIS2_PLACEMENT_3D ( 'NONE', #75, #174, #208 ) ;
#107 = ADVANCED_FACE ( 'NONE', ( #50 ), #167, .F. ) ;
#108 = AXIS2_PLACEMENT_3D ( 'NONE', #37, #84, #3 ) ;
#109 = VERTEX_POINT ( 'NONE', #20 ) ;
#110 = DIRECTION ( 'NONE',  ( 1.000000000000000000, 0.000000000000000000, 0.000000000000000000 ) ) ;
#111 = VERTEX_POINT ( 'NONE', #85 ) ;
#112 = ORIENTED_EDGE ( 'NONE', *, *, #35, .T. ) ;
#113 =( GEOMETRIC_REPRESENTATION_CONTEXT ( 3 ) GLOBAL_UNCERTAINTY_ASSIGNED_CONTEXT ( ( #146 ) ) GLOBAL_UNIT_ASSIGNED_CONTEXT ( ( #171, #207, #188 ) ) REPRESENTATION_CONTEXT ( 'NONE', 'WORKASPACE' ) );
#114 = DIRECTION ( 'NONE',  ( -0.000000000000000000, -1.000000000000000000, -0.000000000000000000 ) ) ;
#115 = DIRECTION ( 'NONE',  ( -1.000000000000000000, 0.000000000000000000, 1.821231995776175479E-16 ) ) ;
#116 = DIRECTION ( 'NONE',  ( 1.000000000000000000, 0.000000000000000000, -1.365923996832131609E-16 ) ) ;
#117 = DIRECTION ( 'NONE',  ( 1.365923996832131609E-16, 0.000000000000000000, 1.000000000000000000 ) ) ;
#118 = DIRECTION ( 'NONE',  ( 1.365923996832131609E-16, 0.000000000000000000, 1.000000000000000000 ) ) ;
#119 = LINE ( 'NONE', #205, #172 ) ;
#120 = CARTESIAN_POINT ( 'NONE',  ( 11.99999999999999645, -0.06250000000000000000, -24.00000000000000711 ) ) ;
#121 = AXIS2_PLACEMENT_3D ( 'NONE', #19, #38, #52 ) ;
#122 = ADVANCED_FACE ( 'NONE', ( #82 ), #4, .F. ) ;
#123 = DIRECTION ( 'NONE',  ( 1.000000000000000000, -0.000000000000000000, -1.821231995776175725E-16 ) ) ;
#124 =( LENGTH_UNIT ( ) NAMED_UNIT ( * ) SI_UNIT ( $, .METRE. ) );
#125 = ADVANCED_FACE ( 'NONE', ( #21 ), #68, .F. ) ;
#126 = ORIENTED_EDGE ( 'NONE', *, *, #74, .T. ) ;
#127 = LENGTH_MEASURE_WITH_UNIT ( LENGTH_MEASURE( 0.02539999999999999897 ), #124 );
#128 = VERTEX_POINT ( 'NONE', #89 ) ;
#129 = VECTOR ( 'NONE', #28, 39.37007874015748143 ) ;
#130 = ORIENTED_EDGE ( 'NONE', *, *, #14, .T. ) ;
#131 = LINE ( 'NONE', #151, #60 ) ;
#132 = ADVANCED_BREP_SHAPE_REPRESENTATION ( 'WCP-0885 Rev1', ( #157, #135 ), #113 ) ;
#133 = LINE ( 'NONE', #152, #91 ) ;
#134 = ORIENTED_EDGE ( 'NONE', *, *, #35, .F. ) ;
#135 = AXIS2_PLACEMENT_3D ( 'NONE', #92, #62, #110 ) ;
#136 = EDGE_CURVE ( 'NONE', #111, #128, #139, .T. ) ;
#137 = FACE_OUTER_BOUND ( 'NONE', #166, .T. ) ;
#138 = DIRECTION ( 'NONE',  ( -0.000000000000000000, -1.000000000000000000, -0.000000000000000000 ) ) ;
#139 = LINE ( 'NONE', #8, #33 ) ;
#140 = VECTOR ( 'NONE', #118, 39.37007874015748143 ) ;
#141 =( LENGTH_UNIT ( ) NAMED_UNIT ( * ) SI_UNIT ( $, .METRE. ) );
#142 =( CONVERSION_BASED_UNIT ( 'INCH', #127 ) LENGTH_UNIT ( ) NAMED_UNIT ( #211 ) );
#143 = EDGE_CURVE ( 'NONE', #128, #109, #119, .T. ) ;
#144 =( GEOMETRIC_REPRESENTATION_CONTEXT ( 3 ) GLOBAL_UNCERTAINTY_ASSIGNED_CONTEXT ( ( #204 ) ) GLOBAL_UNIT_ASSIGNED_CONTEXT ( ( #142, #77, #64 ) ) REPRESENTATION_CONTEXT ( 'NONE', 'WORKASPACE' ) );
#145 = ORIENTED_EDGE ( 'NONE', *, *, #25, .T. ) ;
#146 = UNCERTAINTY_MEASURE_WITH_UNIT (LENGTH_MEASURE( 1.000000000000000082E-05 ), #171, 'distance_accuracy_value', 'NONE');
#147 = SURFACE_STYLE_FILL_AREA ( #15 ) ;
#148 = ORIENTED_EDGE ( 'NONE', *, *, #78, .F. ) ;
#149 = VECTOR ( 'NONE', #43, 39.37007874015748143 ) ;
#150 = DIRECTION ( 'NONE',  ( -1.365923996832131116E-16, -0.000000000000000000, -1.000000000000000000 ) ) ;
#151 = CARTESIAN_POINT ( 'NONE',  ( 11.99999999999999645, -0.06250000000000000000, -24.00000000000000711 ) ) ;
#152 = CARTESIAN_POINT ( 'NONE',  ( -12.00000000000000533, -0.06250000000000000000, -23.99999999999999645 ) ) ;
#153 = PLANE ( 'NONE',  #108 ) ;
#154 = ORIENTED_EDGE ( 'NONE', *, *, #163, .F. ) ;
#155 =( NAMED_UNIT ( * ) PLANE_ANGLE_UNIT ( ) SI_UNIT ( $, .RADIAN. ) );
#156 = VECTOR ( 'NONE', #165, 39.37007874015748143 ) ;
#157 = MANIFOLD_SOLID_BREP ( 'Boss-Extrude1', #168 ) ;
#158 = ADVANCED_FACE ( 'NONE', ( #137 ), #10, .T. ) ;
#159 = AXIS2_PLACEMENT_3D ( 'NONE', #67, #201, #115 ) ;
#160 = APPLICATION_PROTOCOL_DEFINITION ( 'draft international standard', 'automotive_design', 1998, #48 ) ;
#161 = EDGE_CURVE ( 'NONE', #47, #203, #56, .T. ) ;
#162 = ORIENTED_EDGE ( 'NONE', *, *, #136, .T. ) ;
#163 = EDGE_CURVE ( 'NONE', #179, #196, #186, .T. ) ;
#164 = PRODUCT_CONTEXT ( 'NONE', #41, 'mechanical' ) ;
#165 = DIRECTION ( 'NONE',  ( -1.000000000000000000, 0.000000000000000000, 3.642463991552351451E-16 ) ) ;
#166 = EDGE_LOOP ( 'NONE', ( #81, #154, #148, #2 ) ) ;
#167 = PLANE ( 'NONE',  #210 ) ;
#168 = CLOSED_SHELL ( 'NONE', ( #125, #122, #45, #107, #98, #158 ) ) ;
#169 = LINE ( 'NONE', #23, #156 ) ;
#170 = PRESENTATION_STYLE_ASSIGNMENT (( #105 ) ) ;
#171 =( CONVERSION_BASED_UNIT ( 'INCH', #104 ) LENGTH_UNIT ( ) NAMED_UNIT ( #59 ) );
#172 = VECTOR ( 'NONE', #123, 39.37007874015748143 ) ;
#173 = SURFACE_STYLE_FILL_AREA ( #39 ) ;
#174 = DIRECTION ( 'NONE',  ( 0.000000000000000000, -1.000000000000000000, 0.000000000000000000 ) ) ;
#175 = EDGE_LOOP ( 'NONE', ( #99, #102, #184, #178 ) ) ;
#176 = SHAPE_DEFINITION_REPRESENTATION ( #94, #132 ) ;
#177 = EDGE_LOOP ( 'NONE', ( #32, #16, #191, #130 ) ) ;
#178 = ORIENTED_EDGE ( 'NONE', *, *, #83, .T. ) ;
#179 = VERTEX_POINT ( 'NONE', #40 ) ;
#180 = STYLED_ITEM ( 'NONE', ( #170 ), #157 ) ;
#181 = DIRECTION ( 'NONE',  ( 1.000000000000000000, 0.000000000000000000, -3.642463991552350958E-16 ) ) ;
#182 = CARTESIAN_POINT ( 'NONE',  ( -12.00000000000000533, 0.06250000000000000000, -23.99999999999999645 ) ) ;
#183 = DIRECTION ( 'NONE',  ( -1.365923996832131609E-16, 0.000000000000000000, -1.000000000000000000 ) ) ;
#184 = ORIENTED_EDGE ( 'NONE', *, *, #161, .F. ) ;
#185 = CARTESIAN_POINT ( 'NONE',  ( -12.00000000000000533, 0.06250000000000000000, -23.99999999999999645 ) ) ;
#186 = LINE ( 'NONE', #120, #190 ) ;
#187 =( NAMED_UNIT ( * ) SI_UNIT ( $, .STERADIAN. ) SOLID_ANGLE_UNIT ( ) );
#188 =( NAMED_UNIT ( * ) SI_UNIT ( $, .STERADIAN. ) SOLID_ANGLE_UNIT ( ) );
#189 = FILL_AREA_STYLE_COLOUR ( '', #18 ) ;
#190 = VECTOR ( 'NONE', #42, 39.37007874015748143 ) ;
#191 = ORIENTED_EDGE ( 'NONE', *, *, #161, .T. ) ;
#192 = EDGE_CURVE ( 'NONE', #111, #47, #70, .T. ) ;
#193 = FILL_AREA_STYLE_COLOUR ( '', #27 ) ;
#194 = ORIENTED_EDGE ( 'NONE', *, *, #136, .F. ) ;
#195 = UNCERTAINTY_MEASURE_WITH_UNIT (LENGTH_MEASURE( 1.000000000000000082E-05 ), #88, 'distance_accuracy_value', 'NONE');
#196 = VERTEX_POINT ( 'NONE', #24 ) ;
#197 = MECHANICAL_DESIGN_GEOMETRIC_PRESENTATION_REPRESENTATION (  '', ( #46 ), #144 ) ;
#198 = DIRECTION ( 'NONE',  ( 3.642463991552350958E-16, -0.000000000000000000, 1.000000000000000000 ) ) ;
#199 = LINE ( 'NONE', #6, #71 ) ;
#200 = PRODUCT_DEFINITION_CONTEXT ( 'detailed design', #48, 'design' ) ;
#201 = DIRECTION ( 'NONE',  ( -1.821231995776175479E-16, 0.000000000000000000, -1.000000000000000000 ) ) ;
#202 = CARTESIAN_POINT ( 'NONE',  ( -12.00000000000000533, 0.06250000000000000000, -23.99999999999999645 ) ) ;
#203 = VERTEX_POINT ( 'NONE', #73 ) ;
#204 = UNCERTAINTY_MEASURE_WITH_UNIT (LENGTH_MEASURE( 1.000000000000000082E-05 ), #142, 'distance_accuracy_value', 'NONE');
#205 = CARTESIAN_POINT ( 'NONE',  ( 12.00000000000000355, -0.06250000000000000000, 24.00000000000000355 ) ) ;
#206 = LINE ( 'NONE', #185, #140 ) ;
#207 =( NAMED_UNIT ( * ) PLANE_ANGLE_UNIT ( ) SI_UNIT ( $, .RADIAN. ) );
#208 = DIRECTION ( 'NONE',  ( 0.000000000000000000, -0.000000000000000000, -1.000000000000000000 ) ) ;
#209 = EDGE_CURVE ( 'NONE', #97, #111, #206, .T. ) ;
#210 = AXIS2_PLACEMENT_3D ( 'NONE', #100, #198, #181 ) ;
#211 = DIMENSIONAL_EXPONENTS ( 1.000000000000000000, 0.000000000000000000, 0.000000000000000000, 0.000000000000000000, 0.000000000000000000, 0.000000000000000000, 0.000000000000000000 ) ;
ENDSEC;
END-ISO-10303-21;
