ISO-10303-21;
HEADER;
FILE_DESCRIPTION (( 'STEP AP214' ),
    '1' );
FILE_NAME ('WCP-0856 Rev1.step',
    '2023-12-27T21:23:06',
    ( '' ),
    ( '' ),
    'SwSTEP 2.0',
    'SolidWorks 2022',
    '' );
FILE_SCHEMA (( 'AUTOMOTIVE_DESIGN' ));
ENDSEC;

DATA;
#1 = CARTESIAN_POINT ( 'NONE',  ( -17.99999999999999645, 0.03125000000000000000, 36.00000000000000000 ) ) ;
#2 = DIRECTION ( 'NONE',  ( 0.000000000000000000, 0.000000000000000000, -1.000000000000000000 ) ) ;
#3 = PLANE ( 'NONE',  #52 ) ;
#4 = CARTESIAN_POINT ( 'NONE',  ( -18.00000000000000355, 0.03125000000000000000, -36.00000000000000000 ) ) ;
#5 = LINE ( 'NONE', #67, #80 ) ;
#6 = FILL_AREA_STYLE ('',( #21 ) ) ;
#7 = ORIENTED_EDGE ( 'NONE', *, *, #125, .T. ) ;
#8 = EDGE_CURVE ( 'NONE', #158, #91, #97, .T. ) ;
#9 =( NAMED_UNIT ( * ) SI_UNIT ( $, .STERADIAN. ) SOLID_ANGLE_UNIT ( ) );
#10 = ORIENTED_EDGE ( 'NONE', *, *, #114, .F. ) ;
#11 = ORIENTED_EDGE ( 'NONE', *, *, #188, .F. ) ;
#12 = ORIENTED_EDGE ( 'NONE', *, *, #173, .F. ) ;
#13 = DIRECTION ( 'NONE',  ( 0.000000000000000000, -0.000000000000000000, -1.000000000000000000 ) ) ;
#14 = CARTESIAN_POINT ( 'NONE',  ( 17.99999999999999645, 0.03125000000000000000, -36.00000000000000000 ) ) ;
#15 = UNCERTAINTY_MEASURE_WITH_UNIT (LENGTH_MEASURE( 1.000000000000000082E-05 ), #36, 'distance_accuracy_value', 'NONE');
#16 = SURFACE_STYLE_FILL_AREA ( #211 ) ;
#17 = DIRECTION ( 'NONE',  ( 0.000000000000000000, -1.000000000000000000, 0.000000000000000000 ) ) ;
#18 = DIRECTION ( 'NONE',  ( 1.214154663850783653E-16, 0.000000000000000000, 1.000000000000000000 ) ) ;
#19 = AXIS2_PLACEMENT_3D ( 'NONE', #14, #31, #128 ) ;
#20 = DIRECTION ( 'NONE',  ( 0.000000000000000000, -0.000000000000000000, -1.000000000000000000 ) ) ;
#21 = FILL_AREA_STYLE_COLOUR ( '', #169 ) ;
#22 = APPLICATION_CONTEXT ( 'automotive_design' ) ;
#23 = SURFACE_STYLE_USAGE ( .BOTH. , #105 ) ;
#24 = CLOSED_SHELL ( 'NONE', ( #135, #54, #152, #86, #207, #102 ) ) ;
#25 = ORIENTED_EDGE ( 'NONE', *, *, #64, .T. ) ;
#26 = ORIENTED_EDGE ( 'NONE', *, *, #72, .T. ) ;
#27 =( NAMED_UNIT ( * ) PLANE_ANGLE_UNIT ( ) SI_UNIT ( $, .RADIAN. ) );
#28 = VERTEX_POINT ( 'NONE', #76 ) ;
#29 = ORIENTED_EDGE ( 'NONE', *, *, #116, .T. ) ;
#30 = CARTESIAN_POINT ( 'NONE',  ( 17.99999999999999645, 0.03125000000000000000, -36.00000000000000000 ) ) ;
#31 = DIRECTION ( 'NONE',  ( 0.000000000000000000, -0.000000000000000000, 1.000000000000000000 ) ) ;
#32 = LINE ( 'NONE', #163, #48 ) ;
#33 = CARTESIAN_POINT ( 'NONE',  ( 18.00000000000000355, 0.03125000000000000000, 36.00000000000000000 ) ) ;
#34 = VECTOR ( 'NONE', #201, 39.37007874015748143 ) ;
#35 =( NAMED_UNIT ( * ) SI_UNIT ( $, .STERADIAN. ) SOLID_ANGLE_UNIT ( ) );
#36 =( CONVERSION_BASED_UNIT ( 'INCH', #66 ) LENGTH_UNIT ( ) NAMED_UNIT ( #159 ) );
#37 = DIRECTION ( 'NONE',  ( 1.000000000000000000, 0.000000000000000000, -1.214154663850783653E-16 ) ) ;
#38 = SURFACE_STYLE_FILL_AREA ( #6 ) ;
#39 = VERTEX_POINT ( 'NONE', #100 ) ;
#40 = ORIENTED_EDGE ( 'NONE', *, *, #64, .F. ) ;
#41 = VECTOR ( 'NONE', #182, 39.37007874015748143 ) ;
#42 = ORIENTED_EDGE ( 'NONE', *, *, #148, .T. ) ;
#43 = CARTESIAN_POINT ( 'NONE',  ( 17.99999999999999645, 0.03125000000000000000, -36.00000000000000000 ) ) ;
#44 = LINE ( 'NONE', #33, #142 ) ;
#45 = SURFACE_SIDE_STYLE ('',( #16 ) ) ;
#46 = DIRECTION ( 'NONE',  ( -1.000000000000000000, 0.000000000000000000, 0.000000000000000000 ) ) ;
#47 =( LENGTH_UNIT ( ) NAMED_UNIT ( * ) SI_UNIT ( $, .METRE. ) );
#48 = VECTOR ( 'NONE', #199, 39.37007874015748143 ) ;
#49 = DIRECTION ( 'NONE',  ( 1.000000000000000000, -0.000000000000000000, -0.000000000000000000 ) ) ;
#50 = CARTESIAN_POINT ( 'NONE',  ( 0.000000000000000000, 0.03125000000000000000, 0.000000000000000000 ) ) ;
#51 = CARTESIAN_POINT ( 'NONE',  ( 17.99999999999999645, 0.03125000000000000000, -36.00000000000000000 ) ) ;
#52 = AXIS2_PLACEMENT_3D ( 'NONE', #61, #118, #13 ) ;
#53 = LINE ( 'NONE', #4, #186 ) ;
#54 = ADVANCED_FACE ( 'NONE', ( #119 ), #132, .F. ) ;
#55 = ORIENTED_EDGE ( 'NONE', *, *, #148, .F. ) ;
#56 = EDGE_CURVE ( 'NONE', #109, #39, #81, .T. ) ;
#57 = APPLICATION_CONTEXT ( 'automotive_design' ) ;
#58 = EDGE_LOOP ( 'NONE', ( #112, #195, #193, #205 ) ) ;
#59 = PRESENTATION_LAYER_ASSIGNMENT (  '', '', ( #177 ) ) ;
#60 = EDGE_CURVE ( 'NONE', #157, #109, #44, .T. ) ;
#61 = CARTESIAN_POINT ( 'NONE',  ( 0.000000000000000000, -0.03125000000000000000, 0.000000000000000000 ) ) ;
#62 = DIRECTION ( 'NONE',  ( -1.000000000000000000, 0.000000000000000000, -0.000000000000000000 ) ) ;
#63 = CARTESIAN_POINT ( 'NONE',  ( 18.00000000000000355, -0.03125000000000000000, 36.00000000000000000 ) ) ;
#64 = EDGE_CURVE ( 'NONE', #94, #157, #32, .T. ) ;
#65 = CARTESIAN_POINT ( 'NONE',  ( -18.00000000000000355, 0.03125000000000000000, -36.00000000000000000 ) ) ;
#66 = LENGTH_MEASURE_WITH_UNIT ( LENGTH_MEASURE( 0.02539999999999999897 ), #189 );
#67 = CARTESIAN_POINT ( 'NONE',  ( -17.99999999999999645, 0.03125000000000000000, 36.00000000000000000 ) ) ;
#68 = AXIS2_PLACEMENT_3D ( 'NONE', #101, #37, #202 ) ;
#69 =( NAMED_UNIT ( * ) PLANE_ANGLE_UNIT ( ) SI_UNIT ( $, .RADIAN. ) );
#70 = CARTESIAN_POINT ( 'NONE',  ( 17.99999999999999645, 0.03125000000000000000, -36.00000000000000000 ) ) ;
#71 =( GEOMETRIC_REPRESENTATION_CONTEXT ( 3 ) GLOBAL_UNCERTAINTY_ASSIGNED_CONTEXT ( ( #197 ) ) GLOBAL_UNIT_ASSIGNED_CONTEXT ( ( #155, #27, #9 ) ) REPRESENTATION_CONTEXT ( 'NONE', 'WORKASPACE' ) );
#72 = EDGE_CURVE ( 'NONE', #158, #39, #145, .T. ) ;
#73 = ORIENTED_EDGE ( 'NONE', *, *, #8, .T. ) ;
#74 = EDGE_LOOP ( 'NONE', ( #136, #11, #107, #29 ) ) ;
#75 = ORIENTED_EDGE ( 'NONE', *, *, #116, .F. ) ;
#76 = CARTESIAN_POINT ( 'NONE',  ( -18.00000000000000355, -0.03125000000000000000, -36.00000000000000000 ) ) ;
#77 =( NAMED_UNIT ( * ) SI_UNIT ( $, .STERADIAN. ) SOLID_ANGLE_UNIT ( ) );
#78 = PRODUCT_DEFINITION ( 'UNKNOWN', '', #165, #192 ) ;
#79 = CARTESIAN_POINT ( 'NONE',  ( 18.00000000000000355, 0.03125000000000000000, 36.00000000000000000 ) ) ;
#80 = VECTOR ( 'NONE', #170, 39.37007874015748143 ) ;
#81 = LINE ( 'NONE', #200, #120 ) ;
#82 = FACE_OUTER_BOUND ( 'NONE', #74, .T. ) ;
#83 = PRODUCT_RELATED_PRODUCT_CATEGORY ( 'part', '', ( #111 ) ) ;
#84 = FACE_OUTER_BOUND ( 'NONE', #93, .T. ) ;
#85 = LINE ( 'NONE', #168, #34 ) ;
#86 = ADVANCED_FACE ( 'NONE', ( #160 ), #162, .F. ) ;
#87 = PRESENTATION_STYLE_ASSIGNMENT (( #23 ) ) ;
#88 = VECTOR ( 'NONE', #46, 39.37007874015748143 ) ;
#89 = STYLED_ITEM ( 'NONE', ( #87 ), #187 ) ;
#90 = LENGTH_MEASURE_WITH_UNIT ( LENGTH_MEASURE( 0.02539999999999999897 ), #47 );
#91 = VERTEX_POINT ( 'NONE', #131 ) ;
#92 = DIRECTION ( 'NONE',  ( 0.000000000000000000, 0.000000000000000000, 1.000000000000000000 ) ) ;
#93 = EDGE_LOOP ( 'NONE', ( #126, #25, #7, #73 ) ) ;
#94 = VERTEX_POINT ( 'NONE', #1 ) ;
#95 = DIRECTION ( 'NONE',  ( -0.000000000000000000, -1.000000000000000000, -0.000000000000000000 ) ) ;
#96 = FACE_OUTER_BOUND ( 'NONE', #153, .T. ) ;
#97 = LINE ( 'NONE', #43, #88 ) ;
#98 = LINE ( 'NONE', #198, #41 ) ;
#99 = AXIS2_PLACEMENT_3D ( 'NONE', #178, #92, #140 ) ;
#100 = CARTESIAN_POINT ( 'NONE',  ( 17.99999999999999645, -0.03125000000000000000, -36.00000000000000000 ) ) ;
#101 = CARTESIAN_POINT ( 'NONE',  ( -18.00000000000000355, 0.03125000000000000000, -36.00000000000000000 ) ) ;
#102 = ADVANCED_FACE ( 'NONE', ( #96 ), #3, .T. ) ;
#103 = LINE ( 'NONE', #150, #151 ) ;
#104 = LINE ( 'NONE', #70, #166 ) ;
#105 = SURFACE_SIDE_STYLE ('',( #38 ) ) ;
#106 = VECTOR ( 'NONE', #143, 39.37007874015748143 ) ;
#107 = ORIENTED_EDGE ( 'NONE', *, *, #127, .F. ) ;
#108 = PRESENTATION_LAYER_ASSIGNMENT (  '', '', ( #89 ) ) ;
#109 = VERTEX_POINT ( 'NONE', #63 ) ;
#110 = MANIFOLD_SOLID_BREP ( 'Boss-Extrude1', #24 ) ;
#111 = PRODUCT ( 'WCP-0856 Rev1', 'WCP-0856 Rev1', '', ( #156 ) ) ;
#112 = ORIENTED_EDGE ( 'NONE', *, *, #56, .T. ) ;
#113 = AXIS2_PLACEMENT_3D ( 'NONE', #185, #203, #18 ) ;
#114 = EDGE_CURVE ( 'NONE', #28, #174, #98, .T. ) ;
#115 = ORIENTED_EDGE ( 'NONE', *, *, #56, .F. ) ;
#116 = EDGE_CURVE ( 'NONE', #91, #28, #147, .T. ) ;
#117 = MECHANICAL_DESIGN_GEOMETRIC_PRESENTATION_REPRESENTATION (  '', ( #177 ), #138 ) ;
#118 = DIRECTION ( 'NONE',  ( 0.000000000000000000, -1.000000000000000000, 0.000000000000000000 ) ) ;
#119 = FACE_OUTER_BOUND ( 'NONE', #175, .T. ) ;
#120 = VECTOR ( 'NONE', #181, 39.37007874015748143 ) ;
#121 = MECHANICAL_DESIGN_GEOMETRIC_PRESENTATION_REPRESENTATION (  '', ( #89 ), #71 ) ;
#122 = PLANE ( 'NONE',  #113 ) ;
#123 = APPLICATION_PROTOCOL_DEFINITION ( 'draft international standard', 'automotive_design', 1998, #22 ) ;
#124 = PLANE ( 'NONE',  #204 ) ;
#125 = EDGE_CURVE ( 'NONE', #157, #158, #104, .T. ) ;
#126 = ORIENTED_EDGE ( 'NONE', *, *, #127, .T. ) ;
#127 = EDGE_CURVE ( 'NONE', #91, #94, #53, .T. ) ;
#128 = DIRECTION ( 'NONE',  ( 1.000000000000000000, 0.000000000000000000, -0.000000000000000000 ) ) ;
#129 = PRESENTATION_STYLE_ASSIGNMENT (( #144 ) ) ;
#130 = FILL_AREA_STYLE_COLOUR ( '', #210 ) ;
#131 = CARTESIAN_POINT ( 'NONE',  ( -18.00000000000000355, 0.03125000000000000000, -36.00000000000000000 ) ) ;
#132 = PLANE ( 'NONE',  #209 ) ;
#133 = PLANE ( 'NONE',  #68 ) ;
#134 = CARTESIAN_POINT ( 'NONE',  ( -17.99999999999999645, -0.03125000000000000000, 36.00000000000000000 ) ) ;
#135 = ADVANCED_FACE ( 'NONE', ( #82 ), #133, .F. ) ;
#136 = ORIENTED_EDGE ( 'NONE', *, *, #114, .T. ) ;
#137 = EDGE_LOOP ( 'NONE', ( #141, #75, #176, #26 ) ) ;
#138 =( GEOMETRIC_REPRESENTATION_CONTEXT ( 3 ) GLOBAL_UNCERTAINTY_ASSIGNED_CONTEXT ( ( #154 ) ) GLOBAL_UNIT_ASSIGNED_CONTEXT ( ( #149, #180, #77 ) ) REPRESENTATION_CONTEXT ( 'NONE', 'WORKASPACE' ) );
#139 = ORIENTED_EDGE ( 'NONE', *, *, #188, .T. ) ;
#140 = DIRECTION ( 'NONE',  ( 1.000000000000000000, 0.000000000000000000, 0.000000000000000000 ) ) ;
#141 = ORIENTED_EDGE ( 'NONE', *, *, #173, .T. ) ;
#142 = VECTOR ( 'NONE', #183, 39.37007874015748143 ) ;
#143 = DIRECTION ( 'NONE',  ( -0.000000000000000000, -1.000000000000000000, -0.000000000000000000 ) ) ;
#144 = SURFACE_STYLE_USAGE ( .BOTH. , #45 ) ;
#145 = LINE ( 'NONE', #30, #106 ) ;
#146 =( GEOMETRIC_REPRESENTATION_CONTEXT ( 3 ) GLOBAL_UNCERTAINTY_ASSIGNED_CONTEXT ( ( #15 ) ) GLOBAL_UNIT_ASSIGNED_CONTEXT ( ( #36, #69, #35 ) ) REPRESENTATION_CONTEXT ( 'NONE', 'WORKASPACE' ) );
#147 = LINE ( 'NONE', #65, #194 ) ;
#148 = EDGE_CURVE ( 'NONE', #174, #109, #103, .T. ) ;
#149 =( CONVERSION_BASED_UNIT ( 'INCH', #196 ) LENGTH_UNIT ( ) NAMED_UNIT ( #161 ) );
#150 = CARTESIAN_POINT ( 'NONE',  ( 18.00000000000000355, -0.03125000000000000000, 36.00000000000000000 ) ) ;
#151 = VECTOR ( 'NONE', #49, 39.37007874015748143 ) ;
#152 = ADVANCED_FACE ( 'NONE', ( #167 ), #122, .F. ) ;
#153 = EDGE_LOOP ( 'NONE', ( #10, #12, #115, #55 ) ) ;
#154 = UNCERTAINTY_MEASURE_WITH_UNIT (LENGTH_MEASURE( 1.000000000000000082E-05 ), #149, 'distance_accuracy_value', 'NONE');
#155 =( CONVERSION_BASED_UNIT ( 'INCH', #90 ) LENGTH_UNIT ( ) NAMED_UNIT ( #179 ) );
#156 = PRODUCT_CONTEXT ( 'NONE', #22, 'mechanical' ) ;
#157 = VERTEX_POINT ( 'NONE', #184 ) ;
#158 = VERTEX_POINT ( 'NONE', #51 ) ;
#159 = DIMENSIONAL_EXPONENTS ( 1.000000000000000000, 0.000000000000000000, 0.000000000000000000, 0.000000000000000000, 0.000000000000000000, 0.000000000000000000, 0.000000000000000000 ) ;
#160 = FACE_OUTER_BOUND ( 'NONE', #137, .T. ) ;
#161 = DIMENSIONAL_EXPONENTS ( 1.000000000000000000, 0.000000000000000000, 0.000000000000000000, 0.000000000000000000, 0.000000000000000000, 0.000000000000000000, 0.000000000000000000 ) ;
#162 = PLANE ( 'NONE',  #19 ) ;
#163 = CARTESIAN_POINT ( 'NONE',  ( 18.00000000000000355, 0.03125000000000000000, 36.00000000000000000 ) ) ;
#164 =( LENGTH_UNIT ( ) NAMED_UNIT ( * ) SI_UNIT ( $, .METRE. ) );
#165 = PRODUCT_DEFINITION_FORMATION_WITH_SPECIFIED_SOURCE ( 'ANY', '', #111, .NOT_KNOWN. ) ;
#166 = VECTOR ( 'NONE', #172, 39.37007874015748143 ) ;
#167 = FACE_OUTER_BOUND ( 'NONE', #58, .T. ) ;
#168 = CARTESIAN_POINT ( 'NONE',  ( 17.99999999999999645, -0.03125000000000000000, -36.00000000000000000 ) ) ;
#169 = COLOUR_RGB ( '',0.2980392156862745057, 0.2980392156862745057, 0.2980392156862745057 ) ;
#170 = DIRECTION ( 'NONE',  ( -0.000000000000000000, -1.000000000000000000, -0.000000000000000000 ) ) ;
#171 = DIRECTION ( 'NONE',  ( 1.214154663850783653E-16, 0.000000000000000000, 1.000000000000000000 ) ) ;
#172 = DIRECTION ( 'NONE',  ( -1.214154663850783653E-16, -0.000000000000000000, -1.000000000000000000 ) ) ;
#173 = EDGE_CURVE ( 'NONE', #39, #28, #85, .T. ) ;
#174 = VERTEX_POINT ( 'NONE', #134 ) ;
#175 = EDGE_LOOP ( 'NONE', ( #42, #190, #40, #139 ) ) ;
#176 = ORIENTED_EDGE ( 'NONE', *, *, #8, .F. ) ;
#177 = STYLED_ITEM ( 'NONE', ( #129 ), #110 ) ;
#178 = CARTESIAN_POINT ( 'NONE',  ( 0.000000000000000000, 0.000000000000000000, 0.000000000000000000 ) ) ;
#179 = DIMENSIONAL_EXPONENTS ( 1.000000000000000000, 0.000000000000000000, 0.000000000000000000, 0.000000000000000000, 0.000000000000000000, 0.000000000000000000, 0.000000000000000000 ) ;
#180 =( NAMED_UNIT ( * ) PLANE_ANGLE_UNIT ( ) SI_UNIT ( $, .RADIAN. ) );
#181 = DIRECTION ( 'NONE',  ( -1.214154663850783653E-16, -0.000000000000000000, -1.000000000000000000 ) ) ;
#182 = DIRECTION ( 'NONE',  ( 1.214154663850783653E-16, 0.000000000000000000, 1.000000000000000000 ) ) ;
#183 = DIRECTION ( 'NONE',  ( -0.000000000000000000, -1.000000000000000000, -0.000000000000000000 ) ) ;
#184 = CARTESIAN_POINT ( 'NONE',  ( 18.00000000000000355, 0.03125000000000000000, 36.00000000000000000 ) ) ;
#185 = CARTESIAN_POINT ( 'NONE',  ( 17.99999999999999645, 0.03125000000000000000, -36.00000000000000000 ) ) ;
#186 = VECTOR ( 'NONE', #171, 39.37007874015748143 ) ;
#187 = ADVANCED_BREP_SHAPE_REPRESENTATION ( 'WCP-0856 Rev1', ( #110, #99 ), #146 ) ;
#188 = EDGE_CURVE ( 'NONE', #94, #174, #5, .T. ) ;
#189 =( LENGTH_UNIT ( ) NAMED_UNIT ( * ) SI_UNIT ( $, .METRE. ) );
#190 = ORIENTED_EDGE ( 'NONE', *, *, #60, .F. ) ;
#191 = SHAPE_DEFINITION_REPRESENTATION ( #208, #187 ) ;
#192 = PRODUCT_DEFINITION_CONTEXT ( 'detailed design', #57, 'design' ) ;
#193 = ORIENTED_EDGE ( 'NONE', *, *, #125, .F. ) ;
#194 = VECTOR ( 'NONE', #95, 39.37007874015748143 ) ;
#195 = ORIENTED_EDGE ( 'NONE', *, *, #72, .F. ) ;
#196 = LENGTH_MEASURE_WITH_UNIT ( LENGTH_MEASURE( 0.02539999999999999897 ), #164 );
#197 = UNCERTAINTY_MEASURE_WITH_UNIT (LENGTH_MEASURE( 1.000000000000000082E-05 ), #155, 'distance_accuracy_value', 'NONE');
#198 = CARTESIAN_POINT ( 'NONE',  ( -18.00000000000000355, -0.03125000000000000000, -36.00000000000000000 ) ) ;
#199 = DIRECTION ( 'NONE',  ( 1.000000000000000000, -0.000000000000000000, -0.000000000000000000 ) ) ;
#200 = CARTESIAN_POINT ( 'NONE',  ( 17.99999999999999645, -0.03125000000000000000, -36.00000000000000000 ) ) ;
#201 = DIRECTION ( 'NONE',  ( -1.000000000000000000, 0.000000000000000000, 0.000000000000000000 ) ) ;
#202 = DIRECTION ( 'NONE',  ( -1.214154663850783653E-16, 0.000000000000000000, -1.000000000000000000 ) ) ;
#203 = DIRECTION ( 'NONE',  ( -1.000000000000000000, 0.000000000000000000, 1.214154663850783653E-16 ) ) ;
#204 = AXIS2_PLACEMENT_3D ( 'NONE', #50, #17, #20 ) ;
#205 = ORIENTED_EDGE ( 'NONE', *, *, #60, .T. ) ;
#206 = APPLICATION_PROTOCOL_DEFINITION ( 'draft international standard', 'automotive_design', 1998, #57 ) ;
#207 = ADVANCED_FACE ( 'NONE', ( #84 ), #124, .F. ) ;
#208 = PRODUCT_DEFINITION_SHAPE ( 'NONE', 'NONE',  #78 ) ;
#209 = AXIS2_PLACEMENT_3D ( 'NONE', #79, #2, #62 ) ;
#210 = COLOUR_RGB ( '',0.2980392156862745057, 0.2980392156862745057, 0.2980392156862745057 ) ;
#211 = FILL_AREA_STYLE ('',( #130 ) ) ;
ENDSEC;
END-ISO-10303-21;
