ISO-10303-21;
HEADER;
FILE_DESCRIPTION (( 'STEP AP214' ),
    '1' );
FILE_NAME ('WCP-0855 Rev1.step',
    '2023-12-27T21:22:50',
    ( '' ),
    ( '' ),
    'SwSTEP 2.0',
    'SolidWorks 2022',
    '' );
FILE_SCHEMA (( 'AUTOMOTIVE_DESIGN' ));
ENDSEC;

DATA;
#1 = CARTESIAN_POINT ( 'NONE',  ( 17.99999999999999645, 0.01562500000000000000, -36.00000000000000000 ) ) ;
#2 = CARTESIAN_POINT ( 'NONE',  ( 18.00000000000000355, 0.01562500000000000000, 36.00000000000000000 ) ) ;
#3 = VECTOR ( 'NONE', #194, 39.37007874015748143 ) ;
#4 = SURFACE_STYLE_FILL_AREA ( #163 ) ;
#5 = PRODUCT_DEFINITION_CONTEXT ( 'detailed design', #68, 'design' ) ;
#6 = SHAPE_DEFINITION_REPRESENTATION ( #9, #41 ) ;
#7 = STYLED_ITEM ( 'NONE', ( #153 ), #169 ) ;
#8 = CARTESIAN_POINT ( 'NONE',  ( 0.000000000000000000, 0.000000000000000000, 0.000000000000000000 ) ) ;
#9 = PRODUCT_DEFINITION_SHAPE ( 'NONE', 'NONE',  #148 ) ;
#10 = VECTOR ( 'NONE', #109, 39.37007874015748143 ) ;
#11 = ORIENTED_EDGE ( 'NONE', *, *, #20, .F. ) ;
#12 = CARTESIAN_POINT ( 'NONE',  ( 18.00000000000000355, 0.01562500000000000000, 36.00000000000000000 ) ) ;
#13 = ORIENTED_EDGE ( 'NONE', *, *, #164, .F. ) ;
#14 = LINE ( 'NONE', #188, #195 ) ;
#15 =( LENGTH_UNIT ( ) NAMED_UNIT ( * ) SI_UNIT ( $, .METRE. ) );
#16 = EDGE_CURVE ( 'NONE', #187, #89, #21, .T. ) ;
#17 = LINE ( 'NONE', #124, #129 ) ;
#18 = APPLICATION_CONTEXT ( 'automotive_design' ) ;
#19 =( NAMED_UNIT ( * ) SI_UNIT ( $, .STERADIAN. ) SOLID_ANGLE_UNIT ( ) );
#20 = EDGE_CURVE ( 'NONE', #189, #171, #144, .T. ) ;
#21 = LINE ( 'NONE', #204, #44 ) ;
#22 = ORIENTED_EDGE ( 'NONE', *, *, #78, .T. ) ;
#23 = DIRECTION ( 'NONE',  ( 0.000000000000000000, 0.000000000000000000, 1.000000000000000000 ) ) ;
#24 = UNCERTAINTY_MEASURE_WITH_UNIT (LENGTH_MEASURE( 1.000000000000000082E-05 ), #200, 'distance_accuracy_value', 'NONE');
#25 = CARTESIAN_POINT ( 'NONE',  ( 0.000000000000000000, -0.01562500000000000000, 0.000000000000000000 ) ) ;
#26 = ORIENTED_EDGE ( 'NONE', *, *, #84, .T. ) ;
#27 = CARTESIAN_POINT ( 'NONE',  ( -18.00000000000000355, 0.01562500000000000000, -36.00000000000000000 ) ) ;
#28 = SURFACE_STYLE_FILL_AREA ( #126 ) ;
#29 = DIMENSIONAL_EXPONENTS ( 1.000000000000000000, 0.000000000000000000, 0.000000000000000000, 0.000000000000000000, 0.000000000000000000, 0.000000000000000000, 0.000000000000000000 ) ;
#30 = SURFACE_STYLE_USAGE ( .BOTH. , #50 ) ;
#31 =( GEOMETRIC_REPRESENTATION_CONTEXT ( 3 ) GLOBAL_UNCERTAINTY_ASSIGNED_CONTEXT ( ( #156 ) ) GLOBAL_UNIT_ASSIGNED_CONTEXT ( ( #201, #32, #19 ) ) REPRESENTATION_CONTEXT ( 'NONE', 'WORKASPACE' ) );
#32 =( NAMED_UNIT ( * ) PLANE_ANGLE_UNIT ( ) SI_UNIT ( $, .RADIAN. ) );
#33 =( LENGTH_UNIT ( ) NAMED_UNIT ( * ) SI_UNIT ( $, .METRE. ) );
#34 = CARTESIAN_POINT ( 'NONE',  ( 17.99999999999999645, -0.01562500000000000000, -36.00000000000000000 ) ) ;
#35 = PRODUCT_DEFINITION_FORMATION_WITH_SPECIFIED_SOURCE ( 'ANY', '', #203, .NOT_KNOWN. ) ;
#36 = EDGE_CURVE ( 'NONE', #202, #54, #120, .T. ) ;
#37 = COLOUR_RGB ( '',0.2980392156862745057, 0.2980392156862745057, 0.2980392156862745057 ) ;
#38 = ORIENTED_EDGE ( 'NONE', *, *, #180, .T. ) ;
#39 = EDGE_LOOP ( 'NONE', ( #38, #205, #146, #117 ) ) ;
#40 = CARTESIAN_POINT ( 'NONE',  ( -17.99999999999999645, 0.01562500000000000000, 36.00000000000000000 ) ) ;
#41 = ADVANCED_BREP_SHAPE_REPRESENTATION ( 'WCP-0855 Rev1', ( #169, #198 ), #31 ) ;
#42 = CARTESIAN_POINT ( 'NONE',  ( -17.99999999999999645, -0.01562500000000000000, 36.00000000000000000 ) ) ;
#43 = EDGE_CURVE ( 'NONE', #89, #189, #147, .T. ) ;
#44 = VECTOR ( 'NONE', #59, 39.37007874015748143 ) ;
#45 = CARTESIAN_POINT ( 'NONE',  ( 17.99999999999999645, 0.01562500000000000000, -36.00000000000000000 ) ) ;
#46 = DIMENSIONAL_EXPONENTS ( 1.000000000000000000, 0.000000000000000000, 0.000000000000000000, 0.000000000000000000, 0.000000000000000000, 0.000000000000000000, 0.000000000000000000 ) ;
#47 = PLANE ( 'NONE',  #185 ) ;
#48 = DIMENSIONAL_EXPONENTS ( 1.000000000000000000, 0.000000000000000000, 0.000000000000000000, 0.000000000000000000, 0.000000000000000000, 0.000000000000000000, 0.000000000000000000 ) ;
#49 = CARTESIAN_POINT ( 'NONE',  ( 18.00000000000000355, -0.01562500000000000000, 36.00000000000000000 ) ) ;
#50 = SURFACE_SIDE_STYLE ('',( #28 ) ) ;
#51 = DIRECTION ( 'NONE',  ( 1.214154663850783653E-16, 0.000000000000000000, 1.000000000000000000 ) ) ;
#52 = AXIS2_PLACEMENT_3D ( 'NONE', #12, #110, #155 ) ;
#53 = EDGE_CURVE ( 'NONE', #202, #187, #80, .T. ) ;
#54 = VERTEX_POINT ( 'NONE', #42 ) ;
#55 = CARTESIAN_POINT ( 'NONE',  ( 17.99999999999999645, -0.01562500000000000000, -36.00000000000000000 ) ) ;
#56 = UNCERTAINTY_MEASURE_WITH_UNIT (LENGTH_MEASURE( 1.000000000000000082E-05 ), #112, 'distance_accuracy_value', 'NONE');
#57 = VECTOR ( 'NONE', #97, 39.37007874015748143 ) ;
#58 = ORIENTED_EDGE ( 'NONE', *, *, #53, .F. ) ;
#59 = DIRECTION ( 'NONE',  ( -1.214154663850783653E-16, -0.000000000000000000, -1.000000000000000000 ) ) ;
#60 = EDGE_LOOP ( 'NONE', ( #63, #150, #107, #22 ) ) ;
#61 = LENGTH_MEASURE_WITH_UNIT ( LENGTH_MEASURE( 0.02539999999999999897 ), #15 );
#62 = ADVANCED_FACE ( 'NONE', ( #93 ), #65, .F. ) ;
#63 = ORIENTED_EDGE ( 'NONE', *, *, #87, .T. ) ;
#64 = DIRECTION ( 'NONE',  ( 0.000000000000000000, -0.000000000000000000, -1.000000000000000000 ) ) ;
#65 = PLANE ( 'NONE',  #138 ) ;
#66 = CARTESIAN_POINT ( 'NONE',  ( 17.99999999999999645, 0.01562500000000000000, -36.00000000000000000 ) ) ;
#67 = PLANE ( 'NONE',  #103 ) ;
#68 = APPLICATION_CONTEXT ( 'automotive_design' ) ;
#69 = LINE ( 'NONE', #101, #57 ) ;
#70 = FACE_OUTER_BOUND ( 'NONE', #186, .T. ) ;
#71 = VECTOR ( 'NONE', #136, 39.37007874015748143 ) ;
#72 = ORIENTED_EDGE ( 'NONE', *, *, #87, .F. ) ;
#73 =( GEOMETRIC_REPRESENTATION_CONTEXT ( 3 ) GLOBAL_UNCERTAINTY_ASSIGNED_CONTEXT ( ( #24 ) ) GLOBAL_UNIT_ASSIGNED_CONTEXT ( ( #200, #139, #179 ) ) REPRESENTATION_CONTEXT ( 'NONE', 'WORKASPACE' ) );
#74 = ADVANCED_FACE ( 'NONE', ( #106 ), #108, .F. ) ;
#75 = ORIENTED_EDGE ( 'NONE', *, *, #36, .F. ) ;
#76 = DIRECTION ( 'NONE',  ( 0.000000000000000000, -0.000000000000000000, 1.000000000000000000 ) ) ;
#77 = LINE ( 'NONE', #90, #10 ) ;
#78 = EDGE_CURVE ( 'NONE', #89, #151, #172, .T. ) ;
#79 =( NAMED_UNIT ( * ) PLANE_ANGLE_UNIT ( ) SI_UNIT ( $, .RADIAN. ) );
#80 = LINE ( 'NONE', #208, #118 ) ;
#81 = PRESENTATION_STYLE_ASSIGNMENT (( #130 ) ) ;
#82 = CARTESIAN_POINT ( 'NONE',  ( -18.00000000000000355, -0.01562500000000000000, -36.00000000000000000 ) ) ;
#83 = DIRECTION ( 'NONE',  ( 1.000000000000000000, 0.000000000000000000, -1.214154663850783653E-16 ) ) ;
#84 = EDGE_CURVE ( 'NONE', #171, #54, #175, .T. ) ;
#85 = APPLICATION_PROTOCOL_DEFINITION ( 'draft international standard', 'automotive_design', 1998, #18 ) ;
#86 = DIRECTION ( 'NONE',  ( 1.000000000000000000, 0.000000000000000000, 0.000000000000000000 ) ) ;
#87 = EDGE_CURVE ( 'NONE', #151, #202, #17, .T. ) ;
#88 = STYLED_ITEM ( 'NONE', ( #81 ), #41 ) ;
#89 = VERTEX_POINT ( 'NONE', #178 ) ;
#90 = CARTESIAN_POINT ( 'NONE',  ( -18.00000000000000355, 0.01562500000000000000, -36.00000000000000000 ) ) ;
#91 = VERTEX_POINT ( 'NONE', #49 ) ;
#92 = FACE_OUTER_BOUND ( 'NONE', #174, .T. ) ;
#93 = FACE_OUTER_BOUND ( 'NONE', #115, .T. ) ;
#94 = CARTESIAN_POINT ( 'NONE',  ( -18.00000000000000355, -0.01562500000000000000, -36.00000000000000000 ) ) ;
#95 = EDGE_CURVE ( 'NONE', #54, #91, #14, .T. ) ;
#96 = COLOUR_RGB ( '',0.2980392156862745057, 0.2980392156862745057, 0.2980392156862745057 ) ;
#97 = DIRECTION ( 'NONE',  ( -0.000000000000000000, -1.000000000000000000, -0.000000000000000000 ) ) ;
#98 = FILL_AREA_STYLE_COLOUR ( '', #96 ) ;
#99 = ADVANCED_FACE ( 'NONE', ( #193 ), #47, .T. ) ;
#100 = CARTESIAN_POINT ( 'NONE',  ( -18.00000000000000355, 0.01562500000000000000, -36.00000000000000000 ) ) ;
#101 = CARTESIAN_POINT ( 'NONE',  ( 18.00000000000000355, 0.01562500000000000000, 36.00000000000000000 ) ) ;
#102 = VECTOR ( 'NONE', #184, 39.37007874015748143 ) ;
#103 = AXIS2_PLACEMENT_3D ( 'NONE', #100, #83, #141 ) ;
#104 = ORIENTED_EDGE ( 'NONE', *, *, #78, .F. ) ;
#105 = APPLICATION_PROTOCOL_DEFINITION ( 'draft international standard', 'automotive_design', 1998, #68 ) ;
#106 = FACE_OUTER_BOUND ( 'NONE', #60, .T. ) ;
#107 = ORIENTED_EDGE ( 'NONE', *, *, #16, .T. ) ;
#108 = PLANE ( 'NONE',  #160 ) ;
#109 = DIRECTION ( 'NONE',  ( -0.000000000000000000, -1.000000000000000000, -0.000000000000000000 ) ) ;
#110 = DIRECTION ( 'NONE',  ( 0.000000000000000000, 0.000000000000000000, -1.000000000000000000 ) ) ;
#111 = VECTOR ( 'NONE', #116, 39.37007874015748143 ) ;
#112 =( CONVERSION_BASED_UNIT ( 'INCH', #61 ) LENGTH_UNIT ( ) NAMED_UNIT ( #48 ) );
#113 = MECHANICAL_DESIGN_GEOMETRIC_PRESENTATION_REPRESENTATION (  '', ( #88 ), #73 ) ;
#114 = SURFACE_SIDE_STYLE ('',( #4 ) ) ;
#115 = EDGE_LOOP ( 'NONE', ( #152, #13, #104, #154 ) ) ;
#116 = DIRECTION ( 'NONE',  ( -0.000000000000000000, -1.000000000000000000, -0.000000000000000000 ) ) ;
#117 = ORIENTED_EDGE ( 'NONE', *, *, #211, .T. ) ;
#118 = VECTOR ( 'NONE', #159, 39.37007874015748143 ) ;
#119 = ORIENTED_EDGE ( 'NONE', *, *, #84, .F. ) ;
#120 = LINE ( 'NONE', #40, #111 ) ;
#121 = DIRECTION ( 'NONE',  ( 0.000000000000000000, -0.000000000000000000, -1.000000000000000000 ) ) ;
#122 = ORIENTED_EDGE ( 'NONE', *, *, #95, .F. ) ;
#123 = CARTESIAN_POINT ( 'NONE',  ( 0.000000000000000000, 0.01562500000000000000, 0.000000000000000000 ) ) ;
#124 = CARTESIAN_POINT ( 'NONE',  ( -18.00000000000000355, 0.01562500000000000000, -36.00000000000000000 ) ) ;
#125 = DIRECTION ( 'NONE',  ( 0.000000000000000000, -1.000000000000000000, 0.000000000000000000 ) ) ;
#126 = FILL_AREA_STYLE ('',( #177 ) ) ;
#127 = CARTESIAN_POINT ( 'NONE',  ( -17.99999999999999645, 0.01562500000000000000, 36.00000000000000000 ) ) ;
#128 = PLANE ( 'NONE',  #142 ) ;
#129 = VECTOR ( 'NONE', #190, 39.37007874015748143 ) ;
#130 = SURFACE_STYLE_USAGE ( .BOTH. , #114 ) ;
#131 = DIRECTION ( 'NONE',  ( -1.000000000000000000, 0.000000000000000000, 0.000000000000000000 ) ) ;
#132 = EDGE_LOOP ( 'NONE', ( #119, #11, #135, #122 ) ) ;
#133 = PRESENTATION_LAYER_ASSIGNMENT (  '', '', ( #88 ) ) ;
#134 = ORIENTED_EDGE ( 'NONE', *, *, #164, .T. ) ;
#135 = ORIENTED_EDGE ( 'NONE', *, *, #180, .F. ) ;
#136 = DIRECTION ( 'NONE',  ( -1.000000000000000000, 0.000000000000000000, 0.000000000000000000 ) ) ;
#137 = DIRECTION ( 'NONE',  ( 1.000000000000000000, 0.000000000000000000, -0.000000000000000000 ) ) ;
#138 = AXIS2_PLACEMENT_3D ( 'NONE', #66, #76, #137 ) ;
#139 =( NAMED_UNIT ( * ) PLANE_ANGLE_UNIT ( ) SI_UNIT ( $, .RADIAN. ) );
#140 = FACE_OUTER_BOUND ( 'NONE', #39, .T. ) ;
#141 = DIRECTION ( 'NONE',  ( -1.214154663850783653E-16, 0.000000000000000000, -1.000000000000000000 ) ) ;
#142 = AXIS2_PLACEMENT_3D ( 'NONE', #1, #143, #51 ) ;
#143 = DIRECTION ( 'NONE',  ( -1.000000000000000000, 0.000000000000000000, 1.214154663850783653E-16 ) ) ;
#144 = LINE ( 'NONE', #55, #167 ) ;
#145 = PRESENTATION_LAYER_ASSIGNMENT (  '', '', ( #7 ) ) ;
#146 = ORIENTED_EDGE ( 'NONE', *, *, #16, .F. ) ;
#147 = LINE ( 'NONE', #166, #102 ) ;
#148 = PRODUCT_DEFINITION ( 'UNKNOWN', '', #35, #5 ) ;
#149 = ORIENTED_EDGE ( 'NONE', *, *, #95, .T. ) ;
#150 = ORIENTED_EDGE ( 'NONE', *, *, #53, .T. ) ;
#151 = VERTEX_POINT ( 'NONE', #27 ) ;
#152 = ORIENTED_EDGE ( 'NONE', *, *, #20, .T. ) ;
#153 = PRESENTATION_STYLE_ASSIGNMENT (( #30 ) ) ;
#154 = ORIENTED_EDGE ( 'NONE', *, *, #43, .T. ) ;
#155 = DIRECTION ( 'NONE',  ( -1.000000000000000000, 0.000000000000000000, -0.000000000000000000 ) ) ;
#156 = UNCERTAINTY_MEASURE_WITH_UNIT (LENGTH_MEASURE( 1.000000000000000082E-05 ), #201, 'distance_accuracy_value', 'NONE');
#157 = CLOSED_SHELL ( 'NONE', ( #199, #158, #192, #62, #74, #99 ) ) ;
#158 = ADVANCED_FACE ( 'NONE', ( #92 ), #207, .F. ) ;
#159 = DIRECTION ( 'NONE',  ( 1.000000000000000000, -0.000000000000000000, -0.000000000000000000 ) ) ;
#160 = AXIS2_PLACEMENT_3D ( 'NONE', #123, #125, #121 ) ;
#161 =( LENGTH_UNIT ( ) NAMED_UNIT ( * ) SI_UNIT ( $, .METRE. ) );
#162 = LENGTH_MEASURE_WITH_UNIT ( LENGTH_MEASURE( 0.02539999999999999897 ), #33 );
#163 = FILL_AREA_STYLE ('',( #98 ) ) ;
#164 = EDGE_CURVE ( 'NONE', #151, #171, #77, .T. ) ;
#165 = LENGTH_MEASURE_WITH_UNIT ( LENGTH_MEASURE( 0.02539999999999999897 ), #161 );
#166 = CARTESIAN_POINT ( 'NONE',  ( 17.99999999999999645, 0.01562500000000000000, -36.00000000000000000 ) ) ;
#167 = VECTOR ( 'NONE', #131, 39.37007874015748143 ) ;
#168 = PRODUCT_CONTEXT ( 'NONE', #18, 'mechanical' ) ;
#169 = MANIFOLD_SOLID_BREP ( 'Boss-Extrude1', #157 ) ;
#170 = ORIENTED_EDGE ( 'NONE', *, *, #211, .F. ) ;
#171 = VERTEX_POINT ( 'NONE', #82 ) ;
#172 = LINE ( 'NONE', #45, #71 ) ;
#173 = MECHANICAL_DESIGN_GEOMETRIC_PRESENTATION_REPRESENTATION (  '', ( #7 ), #191 ) ;
#174 = EDGE_LOOP ( 'NONE', ( #149, #170, #58, #183 ) ) ;
#175 = LINE ( 'NONE', #94, #3 ) ;
#176 = LINE ( 'NONE', #182, #181 ) ;
#177 = FILL_AREA_STYLE_COLOUR ( '', #37 ) ;
#178 = CARTESIAN_POINT ( 'NONE',  ( 17.99999999999999645, 0.01562500000000000000, -36.00000000000000000 ) ) ;
#179 =( NAMED_UNIT ( * ) SI_UNIT ( $, .STERADIAN. ) SOLID_ANGLE_UNIT ( ) );
#180 = EDGE_CURVE ( 'NONE', #91, #189, #176, .T. ) ;
#181 = VECTOR ( 'NONE', #197, 39.37007874015748143 ) ;
#182 = CARTESIAN_POINT ( 'NONE',  ( 17.99999999999999645, -0.01562500000000000000, -36.00000000000000000 ) ) ;
#183 = ORIENTED_EDGE ( 'NONE', *, *, #36, .T. ) ;
#184 = DIRECTION ( 'NONE',  ( -0.000000000000000000, -1.000000000000000000, -0.000000000000000000 ) ) ;
#185 = AXIS2_PLACEMENT_3D ( 'NONE', #25, #209, #64 ) ;
#186 = EDGE_LOOP ( 'NONE', ( #26, #75, #72, #134 ) ) ;
#187 = VERTEX_POINT ( 'NONE', #2 ) ;
#188 = CARTESIAN_POINT ( 'NONE',  ( 18.00000000000000355, -0.01562500000000000000, 36.00000000000000000 ) ) ;
#189 = VERTEX_POINT ( 'NONE', #34 ) ;
#190 = DIRECTION ( 'NONE',  ( 1.214154663850783653E-16, 0.000000000000000000, 1.000000000000000000 ) ) ;
#191 =( GEOMETRIC_REPRESENTATION_CONTEXT ( 3 ) GLOBAL_UNCERTAINTY_ASSIGNED_CONTEXT ( ( #56 ) ) GLOBAL_UNIT_ASSIGNED_CONTEXT ( ( #112, #79, #210 ) ) REPRESENTATION_CONTEXT ( 'NONE', 'WORKASPACE' ) );
#192 = ADVANCED_FACE ( 'NONE', ( #140 ), #128, .F. ) ;
#193 = FACE_OUTER_BOUND ( 'NONE', #132, .T. ) ;
#194 = DIRECTION ( 'NONE',  ( 1.214154663850783653E-16, 0.000000000000000000, 1.000000000000000000 ) ) ;
#195 = VECTOR ( 'NONE', #206, 39.37007874015748143 ) ;
#196 = PRODUCT_RELATED_PRODUCT_CATEGORY ( 'part', '', ( #203 ) ) ;
#197 = DIRECTION ( 'NONE',  ( -1.214154663850783653E-16, -0.000000000000000000, -1.000000000000000000 ) ) ;
#198 = AXIS2_PLACEMENT_3D ( 'NONE', #8, #23, #86 ) ;
#199 = ADVANCED_FACE ( 'NONE', ( #70 ), #67, .F. ) ;
#200 =( CONVERSION_BASED_UNIT ( 'INCH', #162 ) LENGTH_UNIT ( ) NAMED_UNIT ( #46 ) );
#201 =( CONVERSION_BASED_UNIT ( 'INCH', #165 ) LENGTH_UNIT ( ) NAMED_UNIT ( #29 ) );
#202 = VERTEX_POINT ( 'NONE', #127 ) ;
#203 = PRODUCT ( 'WCP-0855 Rev1', 'WCP-0855 Rev1', '', ( #168 ) ) ;
#204 = CARTESIAN_POINT ( 'NONE',  ( 17.99999999999999645, 0.01562500000000000000, -36.00000000000000000 ) ) ;
#205 = ORIENTED_EDGE ( 'NONE', *, *, #43, .F. ) ;
#206 = DIRECTION ( 'NONE',  ( 1.000000000000000000, -0.000000000000000000, -0.000000000000000000 ) ) ;
#207 = PLANE ( 'NONE',  #52 ) ;
#208 = CARTESIAN_POINT ( 'NONE',  ( 18.00000000000000355, 0.01562500000000000000, 36.00000000000000000 ) ) ;
#209 = DIRECTION ( 'NONE',  ( 0.000000000000000000, -1.000000000000000000, 0.000000000000000000 ) ) ;
#210 =( NAMED_UNIT ( * ) SI_UNIT ( $, .STERADIAN. ) SOLID_ANGLE_UNIT ( ) );
#211 = EDGE_CURVE ( 'NONE', #187, #91, #69, .T. ) ;
ENDSEC;
END-ISO-10303-21;
