ISO-10303-21;
HEADER;
FILE_DESCRIPTION (( 'STEP AP214' ),
    '1' );
FILE_NAME ('WCP-0792 Rev1.step',
    '2022-11-29T01:34:34',
    ( '' ),
    ( '' ),
    'SwSTEP 2.0',
    'SolidWorks 2020',
    '' );
FILE_SCHEMA (( 'AUTOMOTIVE_DESIGN' ));
ENDSEC;

DATA;
#1 = SURFACE_STYLE_FILL_AREA ( #131 ) ;
#2 = EDGE_CURVE ( 'NONE', #227, #335, #265, .T. ) ;
#3 = FACE_OUTER_BOUND ( 'NONE', #4, .T. ) ;
#4 = EDGE_LOOP ( 'NONE', ( #64, #329, #109, #197 ) ) ;
#5 = VECTOR ( 'NONE', #87, 39.37007874015748143 ) ;
#6 = ORIENTED_EDGE ( 'NONE', *, *, #205, .F. ) ;
#7 = PLANE ( 'NONE',  #126 ) ;
#8 = DIRECTION ( 'NONE',  ( 0.000000000000000000, 0.000000000000000000, 1.000000000000000000 ) ) ;
#9 = EDGE_CURVE ( 'NONE', #161, #270, #180, .T. ) ;
#10 = CIRCLE ( 'NONE', #222, 0.3838582677165354173 ) ;
#11 = DIRECTION ( 'NONE',  ( -1.000000000000000000, 0.000000000000000000, 0.000000000000000000 ) ) ;
#12 = CARTESIAN_POINT ( 'NONE',  ( 0.000000000000000000, 0.000000000000000000, 1.000000000000000000 ) ) ;
#13 = LINE ( 'NONE', #282, #113 ) ;
#14 = PLANE ( 'NONE',  #61 ) ;
#15 = VECTOR ( 'NONE', #139, 39.37007874015748143 ) ;
#16 = SURFACE_STYLE_FILL_AREA ( #206 ) ;
#17 = LINE ( 'NONE', #287, #304 ) ;
#18 = EDGE_LOOP ( 'NONE', ( #258, #81 ) ) ;
#19 = LINE ( 'NONE', #202, #324 ) ;
#20 = VERTEX_POINT ( 'NONE', #333 ) ;
#21 = CARTESIAN_POINT ( 'NONE',  ( 0.1472243186433545847, 0.2550000000000000600, 1.000000000000000000 ) ) ;
#22 = ORIENTED_EDGE ( 'NONE', *, *, #175, .T. ) ;
#23 = ADVANCED_FACE ( 'NONE', ( #44 ), #349, .T. ) ;
#24 =( GEOMETRIC_REPRESENTATION_CONTEXT ( 3 ) GLOBAL_UNCERTAINTY_ASSIGNED_CONTEXT ( ( #290 ) ) GLOBAL_UNIT_ASSIGNED_CONTEXT ( ( #271, #160, #269 ) ) REPRESENTATION_CONTEXT ( 'NONE', 'WORKASPACE' ) );
#25 = ORIENTED_EDGE ( 'NONE', *, *, #146, .F. ) ;
#26 = VERTEX_POINT ( 'NONE', #311 ) ;
#27 = CIRCLE ( 'NONE', #351, 0.3838582677165354173 ) ;
#28 = CARTESIAN_POINT ( 'NONE',  ( 0.000000000000000000, 0.000000000000000000, 1.000000000000000000 ) ) ;
#29 = EDGE_CURVE ( 'NONE', #277, #209, #221, .T. ) ;
#30 = CARTESIAN_POINT ( 'NONE',  ( -0.1472243186433546402, 0.2550000000000000600, -1.000000000000000000 ) ) ;
#31 = LINE ( 'NONE', #57, #15 ) ;
#32 = VECTOR ( 'NONE', #59, 39.37007874015748143 ) ;
#33 = DIRECTION ( 'NONE',  ( 1.000000000000000000, 0.000000000000000000, -0.000000000000000000 ) ) ;
#34 = DIMENSIONAL_EXPONENTS ( 1.000000000000000000, 0.000000000000000000, 0.000000000000000000, 0.000000000000000000, 0.000000000000000000, 0.000000000000000000, 0.000000000000000000 ) ;
#35 = CARTESIAN_POINT ( 'NONE',  ( 0.1472243186433546402, -0.2550000000000000600, -1.000000000000000000 ) ) ;
#36 = CARTESIAN_POINT ( 'NONE',  ( -0.1472243186433546402, 0.2550000000000000600, -1.000000000000000000 ) ) ;
#37 = ORIENTED_EDGE ( 'NONE', *, *, #294, .F. ) ;
#38 = VECTOR ( 'NONE', #212, 39.37007874015748854 ) ;
#39 = CARTESIAN_POINT ( 'NONE',  ( 0.000000000000000000, 0.000000000000000000, 1.000000000000000000 ) ) ;
#40 = FACE_OUTER_BOUND ( 'NONE', #127, .T. ) ;
#41 = ORIENTED_EDGE ( 'NONE', *, *, #9, .T. ) ;
#42 = SHAPE_DEFINITION_REPRESENTATION ( #171, #318 ) ;
#43 = PRESENTATION_STYLE_ASSIGNMENT (( #293 ) ) ;
#44 = FACE_OUTER_BOUND ( 'NONE', #315, .T. ) ;
#45 = LENGTH_MEASURE_WITH_UNIT ( LENGTH_MEASURE( 0.02539999999999999897 ), #158 );
#46 = COLOUR_RGB ( '',0.8666666666666666963, 0.9098039215686274384, 1.000000000000000000 ) ;
#47 = EDGE_LOOP ( 'NONE', ( #210, #148, #231, #182 ) ) ;
#48 = APPLICATION_PROTOCOL_DEFINITION ( 'draft international standard', 'automotive_design', 1998, #298 ) ;
#49 =( LENGTH_UNIT ( ) NAMED_UNIT ( * ) SI_UNIT ( $, .METRE. ) );
#50 = EDGE_LOOP ( 'NONE', ( #239, #41, #288, #229 ) ) ;
#51 = CARTESIAN_POINT ( 'NONE',  ( -0.1472243186433544737, -0.2550000000000001710, 1.000000000000000000 ) ) ;
#52 = PRESENTATION_LAYER_ASSIGNMENT (  '', '', ( #215 ) ) ;
#53 = CARTESIAN_POINT ( 'NONE',  ( 0.1472243186433545847, 0.2550000000000000600, -1.000000000000000000 ) ) ;
#54 = VERTEX_POINT ( 'NONE', #337 ) ;
#55 = DIRECTION ( 'NONE',  ( -0.8660254037844385966, -0.5000000000000001110, 0.000000000000000000 ) ) ;
#56 = VECTOR ( 'NONE', #241, 39.37007874015748143 ) ;
#57 = CARTESIAN_POINT ( 'NONE',  ( 0.2944486372867091695, 9.125506018658727786E-17, -1.000000000000000000 ) ) ;
#58 = FACE_BOUND ( 'NONE', #93, .T. ) ;
#59 = DIRECTION ( 'NONE',  ( -0.000000000000000000, -0.000000000000000000, -1.000000000000000000 ) ) ;
#60 = ORIENTED_EDGE ( 'NONE', *, *, #92, .F. ) ;
#61 = AXIS2_PLACEMENT_3D ( 'NONE', #21, #179, #255 ) ;
#62 = PLANE ( 'NONE',  #80 ) ;
#63 = CARTESIAN_POINT ( 'NONE',  ( 0.1472243186433545847, 0.2550000000000000600, 1.000000000000000000 ) ) ;
#64 = ORIENTED_EDGE ( 'NONE', *, *, #246, .F. ) ;
#65 = DIRECTION ( 'NONE',  ( 0.8660254037844385966, 0.5000000000000003331, -0.000000000000000000 ) ) ;
#66 = ORIENTED_EDGE ( 'NONE', *, *, #97, .F. ) ;
#67 = EDGE_CURVE ( 'NONE', #190, #270, #68, .T. ) ;
#68 = CIRCLE ( 'NONE', #250, 0.3838582677165354173 ) ;
#69 = CARTESIAN_POINT ( 'NONE',  ( 0.1472243186433545847, 0.2550000000000000600, -1.000000000000000000 ) ) ;
#70 = CARTESIAN_POINT ( 'NONE',  ( -0.3838582677165354173, 0.000000000000000000, -1.000000000000000000 ) ) ;
#71 = CARTESIAN_POINT ( 'NONE',  ( 0.3838582677165354173, 4.700907988853029121E-17, 1.000000000000000000 ) ) ;
#72 = DIRECTION ( 'NONE',  ( -1.000000000000000000, 0.000000000000000000, 0.000000000000000000 ) ) ;
#73 = DIRECTION ( 'NONE',  ( -0.000000000000000000, -0.000000000000000000, -1.000000000000000000 ) ) ;
#74 = AXIS2_PLACEMENT_3D ( 'NONE', #291, #65, #323 ) ;
#75 = EDGE_CURVE ( 'NONE', #130, #335, #31, .T. ) ;
#76 = ORIENTED_EDGE ( 'NONE', *, *, #2, .T. ) ;
#77 =( NAMED_UNIT ( * ) PLANE_ANGLE_UNIT ( ) SI_UNIT ( $, .RADIAN. ) );
#78 =( NAMED_UNIT ( * ) SI_UNIT ( $, .STERADIAN. ) SOLID_ANGLE_UNIT ( ) );
#79 = CARTESIAN_POINT ( 'NONE',  ( -0.1472243186433546402, 0.2550000000000000600, 1.000000000000000000 ) ) ;
#80 = AXIS2_PLACEMENT_3D ( 'NONE', #143, #195, #85 ) ;
#81 = ORIENTED_EDGE ( 'NONE', *, *, #107, .T. ) ;
#82 = FACE_OUTER_BOUND ( 'NONE', #123, .T. ) ;
#83 = PRODUCT_RELATED_PRODUCT_CATEGORY ( 'part', '', ( #224 ) ) ;
#84 = FACE_OUTER_BOUND ( 'NONE', #300, .T. ) ;
#85 = DIRECTION ( 'NONE',  ( -0.4999999999999997224, -0.8660254037844388186, 0.000000000000000000 ) ) ;
#86 = LINE ( 'NONE', #116, #32 ) ;
#87 = DIRECTION ( 'NONE',  ( -0.000000000000000000, -0.000000000000000000, -1.000000000000000000 ) ) ;
#88 = DIMENSIONAL_EXPONENTS ( 1.000000000000000000, 0.000000000000000000, 0.000000000000000000, 0.000000000000000000, 0.000000000000000000, 0.000000000000000000, 0.000000000000000000 ) ;
#89 = AXIS2_PLACEMENT_3D ( 'NONE', #99, #184, #268 ) ;
#90 = DIRECTION ( 'NONE',  ( -0.000000000000000000, -0.000000000000000000, -1.000000000000000000 ) ) ;
#91 = DIRECTION ( 'NONE',  ( -1.000000000000000000, 0.000000000000000000, 0.000000000000000000 ) ) ;
#92 = EDGE_CURVE ( 'NONE', #209, #156, #168, .T. ) ;
#93 = EDGE_LOOP ( 'NONE', ( #295, #263, #236, #101, #207, #186 ) ) ;
#94 = AXIS2_PLACEMENT_3D ( 'NONE', #243, #108, #217 ) ;
#95 = DIRECTION ( 'NONE',  ( 0.000000000000000000, 0.000000000000000000, 1.000000000000000000 ) ) ;
#96 = ORIENTED_EDGE ( 'NONE', *, *, #132, .F. ) ;
#97 = EDGE_CURVE ( 'NONE', #54, #130, #196, .T. ) ;
#98 = CARTESIAN_POINT ( 'NONE',  ( 0.000000000000000000, 0.000000000000000000, 1.000000000000000000 ) ) ;
#99 = CARTESIAN_POINT ( 'NONE',  ( -0.1472243186433546402, 0.2550000000000000600, 1.000000000000000000 ) ) ;
#100 =( NAMED_UNIT ( * ) PLANE_ANGLE_UNIT ( ) SI_UNIT ( $, .RADIAN. ) );
#101 = ORIENTED_EDGE ( 'NONE', *, *, #220, .T. ) ;
#102 = CARTESIAN_POINT ( 'NONE',  ( -0.1472243186433546402, 0.2550000000000000600, 1.000000000000000000 ) ) ;
#103 = AXIS2_PLACEMENT_3D ( 'NONE', #39, #176, #183 ) ;
#104 = ADVANCED_FACE ( 'NONE', ( #84 ), #316, .T. ) ;
#105 = DIRECTION ( 'NONE',  ( -1.000000000000000000, -3.479190826162944257E-16, 0.000000000000000000 ) ) ;
#106 = EDGE_LOOP ( 'NONE', ( #25, #133, #320, #159 ) ) ;
#107 = EDGE_CURVE ( 'NONE', #161, #20, #10, .T. ) ;
#108 = DIRECTION ( 'NONE',  ( 0.000000000000000000, 0.000000000000000000, 1.000000000000000000 ) ) ;
#109 = ORIENTED_EDGE ( 'NONE', *, *, #162, .T. ) ;
#110 = DIRECTION ( 'NONE',  ( 0.000000000000000000, 0.000000000000000000, 1.000000000000000000 ) ) ;
#111 = DIMENSIONAL_EXPONENTS ( 1.000000000000000000, 0.000000000000000000, 0.000000000000000000, 0.000000000000000000, 0.000000000000000000, 0.000000000000000000, 0.000000000000000000 ) ;
#112 = CARTESIAN_POINT ( 'NONE',  ( 0.2944486372867091695, 9.125506018658727786E-17, 1.000000000000000000 ) ) ;
#113 = VECTOR ( 'NONE', #251, 39.37007874015748143 ) ;
#114 = CARTESIAN_POINT ( 'NONE',  ( -0.1472243186433545015, -0.2550000000000001710, -1.000000000000000000 ) ) ;
#115 = DIRECTION ( 'NONE',  ( 1.000000000000000000, 0.000000000000000000, -0.000000000000000000 ) ) ;
#116 = CARTESIAN_POINT ( 'NONE',  ( 0.1472243186433546402, -0.2550000000000000600, 1.000000000000000000 ) ) ;
#117 = ORIENTED_EDGE ( 'NONE', *, *, #67, .T. ) ;
#118 = CLOSED_SHELL ( 'NONE', ( #285, #169, #155, #140, #334, #128, #104, #281, #23, #194 ) ) ;
#119 = PRODUCT_DEFINITION ( 'UNKNOWN', '', #257, #273 ) ;
#120 = PLANE ( 'NONE',  #74 ) ;
#121 = EDGE_LOOP ( 'NONE', ( #344, #292, #142, #153, #306, #6 ) ) ;
#122 = DIRECTION ( 'NONE',  ( 1.000000000000000000, 0.000000000000000000, 0.000000000000000000 ) ) ;
#123 = EDGE_LOOP ( 'NONE', ( #166, #37, #242, #117 ) ) ;
#124 = CARTESIAN_POINT ( 'NONE',  ( 0.1472243186433545847, 0.2550000000000000600, 1.000000000000000000 ) ) ;
#125 = ORIENTED_EDGE ( 'NONE', *, *, #309, .F. ) ;
#126 = AXIS2_PLACEMENT_3D ( 'NONE', #12, #110, #115 ) ;
#127 = EDGE_LOOP ( 'NONE', ( #60, #350, #22, #145 ) ) ;
#128 = ADVANCED_FACE ( 'NONE', ( #279 ), #62, .T. ) ;
#129 = DIRECTION ( 'NONE',  ( 0.5000000000000002220, -0.8660254037844384856, 0.000000000000000000 ) ) ;
#130 = VERTEX_POINT ( 'NONE', #248 ) ;
#131 = FILL_AREA_STYLE ('',( #165 ) ) ;
#132 = EDGE_CURVE ( 'NONE', #270, #190, #27, .T. ) ;
#133 = ORIENTED_EDGE ( 'NONE', *, *, #134, .F. ) ;
#134 = EDGE_CURVE ( 'NONE', #26, #233, #86, .T. ) ;
#135 = VERTEX_POINT ( 'NONE', #226 ) ;
#136 = VECTOR ( 'NONE', #339, 39.37007874015748854 ) ;
#137 = PLANE ( 'NONE',  #178 ) ;
#138 = DIRECTION ( 'NONE',  ( 0.5000000000000001110, -0.8660254037844385966, 0.000000000000000000 ) ) ;
#139 = DIRECTION ( 'NONE',  ( -0.5000000000000001110, 0.8660254037844385966, 0.000000000000000000 ) ) ;
#140 = ADVANCED_FACE ( 'NONE', ( #82 ), #286, .T. ) ;
#141 = VECTOR ( 'NONE', #326, 39.37007874015748143 ) ;
#142 = ORIENTED_EDGE ( 'NONE', *, *, #175, .F. ) ;
#143 = CARTESIAN_POINT ( 'NONE',  ( 0.1472243186433546402, -0.2550000000000000600, 1.000000000000000000 ) ) ;
#144 = FACE_OUTER_BOUND ( 'NONE', #245, .T. ) ;
#145 = ORIENTED_EDGE ( 'NONE', *, *, #343, .T. ) ;
#146 = EDGE_CURVE ( 'NONE', #233, #130, #219, .T. ) ;
#147 = CARTESIAN_POINT ( 'NONE',  ( 0.1472243186433546402, -0.2550000000000000600, 1.000000000000000000 ) ) ;
#148 = ORIENTED_EDGE ( 'NONE', *, *, #2, .F. ) ;
#149 = VECTOR ( 'NONE', #73, 39.37007874015748143 ) ;
#150 = CARTESIAN_POINT ( 'NONE',  ( -0.1472243186433544737, -0.2550000000000001710, -1.000000000000000000 ) ) ;
#151 = UNCERTAINTY_MEASURE_WITH_UNIT (LENGTH_MEASURE( 1.000000000000000082E-05 ), #267, 'distance_accuracy_value', 'NONE');
#152 = CARTESIAN_POINT ( 'NONE',  ( -0.2944486372867092250, 0.000000000000000000, -1.000000000000000000 ) ) ;
#153 = ORIENTED_EDGE ( 'NONE', *, *, #313, .F. ) ;
#154 = LINE ( 'NONE', #147, #346 ) ;
#155 = ADVANCED_FACE ( 'NONE', ( #144, #58 ), #137, .F. ) ;
#156 = VERTEX_POINT ( 'NONE', #114 ) ;
#157 = VECTOR ( 'NONE', #167, 39.37007874015748854 ) ;
#158 =( LENGTH_UNIT ( ) NAMED_UNIT ( * ) SI_UNIT ( $, .METRE. ) );
#159 = ORIENTED_EDGE ( 'NONE', *, *, #97, .T. ) ;
#160 =( NAMED_UNIT ( * ) PLANE_ANGLE_UNIT ( ) SI_UNIT ( $, .RADIAN. ) );
#161 = VERTEX_POINT ( 'NONE', #223 ) ;
#162 = EDGE_CURVE ( 'NONE', #135, #26, #13, .T. ) ;
#163 = PLANE ( 'NONE',  #244 ) ;
#164 = MECHANICAL_DESIGN_GEOMETRIC_PRESENTATION_REPRESENTATION (  '', ( #215 ), #317 ) ;
#165 = FILL_AREA_STYLE_COLOUR ( '', #46 ) ;
#166 = ORIENTED_EDGE ( 'NONE', *, *, #9, .F. ) ;
#167 = DIRECTION ( 'NONE',  ( 0.5000000000000002220, -0.8660254037844384856, 0.000000000000000000 ) ) ;
#168 = LINE ( 'NONE', #280, #157 ) ;
#169 = ADVANCED_FACE ( 'NONE', ( #338, #314 ), #7, .T. ) ;
#170 = CARTESIAN_POINT ( 'NONE',  ( 0.000000000000000000, 0.000000000000000000, 1.000000000000000000 ) ) ;
#171 = PRODUCT_DEFINITION_SHAPE ( 'NONE', 'NONE',  #119 ) ;
#172 = DIRECTION ( 'NONE',  ( -0.000000000000000000, -0.000000000000000000, -1.000000000000000000 ) ) ;
#173 = VECTOR ( 'NONE', #262, 39.37007874015748143 ) ;
#174 = CARTESIAN_POINT ( 'NONE',  ( 0.000000000000000000, 0.000000000000000000, -1.000000000000000000 ) ) ;
#175 = EDGE_CURVE ( 'NONE', #203, #135, #225, .T. ) ;
#176 = DIRECTION ( 'NONE',  ( -0.000000000000000000, -0.000000000000000000, -1.000000000000000000 ) ) ;
#177 = ORIENTED_EDGE ( 'NONE', *, *, #313, .T. ) ;
#178 = AXIS2_PLACEMENT_3D ( 'NONE', #283, #253, #33 ) ;
#179 = DIRECTION ( 'NONE',  ( 0.000000000000000000, -1.000000000000000000, 0.000000000000000000 ) ) ;
#180 = LINE ( 'NONE', #71, #149 ) ;
#181 = DIRECTION ( 'NONE',  ( -0.5000000000000001110, 0.8660254037844385966, 0.000000000000000000 ) ) ;
#182 = ORIENTED_EDGE ( 'NONE', *, *, #309, .T. ) ;
#183 = DIRECTION ( 'NONE',  ( -1.000000000000000000, 0.000000000000000000, 0.000000000000000000 ) ) ;
#184 = DIRECTION ( 'NONE',  ( 0.8660254037844387076, -0.5000000000000001110, 0.000000000000000000 ) ) ;
#185 = VECTOR ( 'NONE', #129, 39.37007874015748854 ) ;
#186 = ORIENTED_EDGE ( 'NONE', *, *, #92, .T. ) ;
#187 = LINE ( 'NONE', #79, #56 ) ;
#188 = CARTESIAN_POINT ( 'NONE',  ( -0.1472243186433544737, -0.2550000000000001710, 1.000000000000000000 ) ) ;
#189 =( NAMED_UNIT ( * ) SI_UNIT ( $, .STERADIAN. ) SOLID_ANGLE_UNIT ( ) );
#190 = VERTEX_POINT ( 'NONE', #70 ) ;
#191 = DIRECTION ( 'NONE',  ( 0.000000000000000000, 0.000000000000000000, 1.000000000000000000 ) ) ;
#192 = DIRECTION ( 'NONE',  ( 0.000000000000000000, 0.000000000000000000, 1.000000000000000000 ) ) ;
#193 = CIRCLE ( 'NONE', #266, 0.3838582677165354173 ) ;
#194 = ADVANCED_FACE ( 'NONE', ( #40 ), #120, .T. ) ;
#195 = DIRECTION ( 'NONE',  ( -0.8660254037844388186, 0.4999999999999997224, 0.000000000000000000 ) ) ;
#196 = LINE ( 'NONE', #336, #5 ) ;
#197 = ORIENTED_EDGE ( 'NONE', *, *, #134, .T. ) ;
#198 = DIRECTION ( 'NONE',  ( 1.000000000000000000, 0.000000000000000000, 0.000000000000000000 ) ) ;
#199 = ORIENTED_EDGE ( 'NONE', *, *, #29, .F. ) ;
#200 = DIRECTION ( 'NONE',  ( -0.000000000000000000, -0.000000000000000000, -1.000000000000000000 ) ) ;
#201 = CARTESIAN_POINT ( 'NONE',  ( 0.3838582677165354173, 4.700907988853029121E-17, -1.000000000000000000 ) ) ;
#202 = CARTESIAN_POINT ( 'NONE',  ( 0.2944486372867091695, 9.125506018658727786E-17, 1.000000000000000000 ) ) ;
#203 = VERTEX_POINT ( 'NONE', #348 ) ;
#204 = MECHANICAL_DESIGN_GEOMETRIC_PRESENTATION_REPRESENTATION (  '', ( #278 ), #24 ) ;
#205 = EDGE_CURVE ( 'NONE', #54, #227, #19, .T. ) ;
#206 = FILL_AREA_STYLE ('',( #342 ) ) ;
#207 = ORIENTED_EDGE ( 'NONE', *, *, #29, .T. ) ;
#208 = LINE ( 'NONE', #69, #332 ) ;
#209 = VERTEX_POINT ( 'NONE', #152 ) ;
#210 = ORIENTED_EDGE ( 'NONE', *, *, #220, .F. ) ;
#211 = VECTOR ( 'NONE', #303, 39.37007874015748143 ) ;
#212 = DIRECTION ( 'NONE',  ( -0.5000000000000000000, -0.8660254037844385966, 0.000000000000000000 ) ) ;
#213 = PRESENTATION_STYLE_ASSIGNMENT (( #305 ) ) ;
#214 = EDGE_CURVE ( 'NONE', #203, #209, #17, .T. ) ;
#215 = STYLED_ITEM ( 'NONE', ( #43 ), #307 ) ;
#216 = CARTESIAN_POINT ( 'NONE',  ( 0.1472243186433545847, 0.2550000000000000600, 1.000000000000000000 ) ) ;
#217 = DIRECTION ( 'NONE',  ( 1.000000000000000000, 0.000000000000000000, 0.000000000000000000 ) ) ;
#218 = ORIENTED_EDGE ( 'NONE', *, *, #214, .T. ) ;
#219 = LINE ( 'NONE', #35, #284 ) ;
#220 = EDGE_CURVE ( 'NONE', #335, #277, #208, .T. ) ;
#221 = LINE ( 'NONE', #30, #136 ) ;
#222 = AXIS2_PLACEMENT_3D ( 'NONE', #170, #192, #198 ) ;
#223 = CARTESIAN_POINT ( 'NONE',  ( 0.3838582677165354173, 4.700907988853029121E-17, 1.000000000000000000 ) ) ;
#224 = PRODUCT ( 'WCP-0792 Rev1', 'WCP-0792 Rev1', '', ( #237 ) ) ;
#225 = LINE ( 'NONE', #235, #185 ) ;
#226 = CARTESIAN_POINT ( 'NONE',  ( -0.1472243186433544737, -0.2550000000000001710, 1.000000000000000000 ) ) ;
#227 = VERTEX_POINT ( 'NONE', #124 ) ;
#228 = CARTESIAN_POINT ( 'NONE',  ( 0.1472243186433546402, -0.2550000000000000600, -1.000000000000000000 ) ) ;
#229 = ORIENTED_EDGE ( 'NONE', *, *, #302, .F. ) ;
#230 = LINE ( 'NONE', #289, #272 ) ;
#231 = ORIENTED_EDGE ( 'NONE', *, *, #252, .T. ) ;
#232 = FACE_OUTER_BOUND ( 'NONE', #50, .T. ) ;
#233 = VERTEX_POINT ( 'NONE', #228 ) ;
#234 = AXIS2_PLACEMENT_3D ( 'NONE', #112, #55, #138 ) ;
#235 = CARTESIAN_POINT ( 'NONE',  ( -0.2944486372867092250, 0.000000000000000000, 1.000000000000000000 ) ) ;
#236 = ORIENTED_EDGE ( 'NONE', *, *, #75, .T. ) ;
#237 = PRODUCT_CONTEXT ( 'NONE', #254, 'mechanical' ) ;
#238 =( LENGTH_UNIT ( ) NAMED_UNIT ( * ) SI_UNIT ( $, .METRE. ) );
#239 = ORIENTED_EDGE ( 'NONE', *, *, #107, .F. ) ;
#240 = LINE ( 'NONE', #51, #211 ) ;
#241 = DIRECTION ( 'NONE',  ( -0.000000000000000000, -0.000000000000000000, -1.000000000000000000 ) ) ;
#242 = ORIENTED_EDGE ( 'NONE', *, *, #302, .T. ) ;
#243 = CARTESIAN_POINT ( 'NONE',  ( 0.000000000000000000, 0.000000000000000000, 0.000000000000000000 ) ) ;
#244 = AXIS2_PLACEMENT_3D ( 'NONE', #188, #274, #105 ) ;
#245 = EDGE_LOOP ( 'NONE', ( #327, #96 ) ) ;
#246 = EDGE_CURVE ( 'NONE', #156, #233, #319, .T. ) ;
#247 = DIRECTION ( 'NONE',  ( 1.000000000000000000, 0.000000000000000000, 0.000000000000000000 ) ) ;
#248 = CARTESIAN_POINT ( 'NONE',  ( 0.2944486372867091695, 9.125506018658727786E-17, -1.000000000000000000 ) ) ;
#249 = DIRECTION ( 'NONE',  ( 1.000000000000000000, 0.000000000000000000, 0.000000000000000000 ) ) ;
#250 = AXIS2_PLACEMENT_3D ( 'NONE', #308, #191, #247 ) ;
#251 = DIRECTION ( 'NONE',  ( 1.000000000000000000, 3.479190826162944257E-16, 0.000000000000000000 ) ) ;
#252 = EDGE_CURVE ( 'NONE', #227, #322, #341, .T. ) ;
#253 = DIRECTION ( 'NONE',  ( 0.000000000000000000, 0.000000000000000000, 1.000000000000000000 ) ) ;
#254 = APPLICATION_CONTEXT ( 'automotive_design' ) ;
#255 = DIRECTION ( 'NONE',  ( 0.000000000000000000, -0.000000000000000000, -1.000000000000000000 ) ) ;
#256 = COLOUR_RGB ( '',0.8666666666666666963, 0.9098039215686274384, 1.000000000000000000 ) ;
#257 = PRODUCT_DEFINITION_FORMATION_WITH_SPECIFIED_SOURCE ( 'ANY', '', #224, .NOT_KNOWN. ) ;
#258 = ORIENTED_EDGE ( 'NONE', *, *, #294, .T. ) ;
#259 = UNCERTAINTY_MEASURE_WITH_UNIT (LENGTH_MEASURE( 1.000000000000000082E-05 ), #276, 'distance_accuracy_value', 'NONE');
#260 = EDGE_CURVE ( 'NONE', #26, #54, #154, .T. ) ;
#261 = DIRECTION ( 'NONE',  ( 0.4999999999999997224, 0.8660254037844388186, 0.000000000000000000 ) ) ;
#262 = DIRECTION ( 'NONE',  ( 1.000000000000000000, 3.479190826162944257E-16, 0.000000000000000000 ) ) ;
#263 = ORIENTED_EDGE ( 'NONE', *, *, #146, .T. ) ;
#264 = LINE ( 'NONE', #102, #38 ) ;
#265 = LINE ( 'NONE', #216, #141 ) ;
#266 = AXIS2_PLACEMENT_3D ( 'NONE', #98, #95, #122 ) ;
#267 =( CONVERSION_BASED_UNIT ( 'INCH', #45 ) LENGTH_UNIT ( ) NAMED_UNIT ( #34 ) );
#268 = DIRECTION ( 'NONE',  ( 0.5000000000000000000, 0.8660254037844385966, 0.000000000000000000 ) ) ;
#269 =( NAMED_UNIT ( * ) SI_UNIT ( $, .STERADIAN. ) SOLID_ANGLE_UNIT ( ) );
#270 = VERTEX_POINT ( 'NONE', #201 ) ;
#271 =( CONVERSION_BASED_UNIT ( 'INCH', #328 ) LENGTH_UNIT ( ) NAMED_UNIT ( #111 ) );
#272 = VECTOR ( 'NONE', #90, 39.37007874015748143 ) ;
#273 = PRODUCT_DEFINITION_CONTEXT ( 'detailed design', #298, 'design' ) ;
#274 = DIRECTION ( 'NONE',  ( -3.479190826162944257E-16, 1.000000000000000000, 0.000000000000000000 ) ) ;
#275 = SURFACE_SIDE_STYLE ('',( #1 ) ) ;
#276 =( CONVERSION_BASED_UNIT ( 'INCH', #331 ) LENGTH_UNIT ( ) NAMED_UNIT ( #88 ) );
#277 = VERTEX_POINT ( 'NONE', #36 ) ;
#278 = STYLED_ITEM ( 'NONE', ( #213 ), #318 ) ;
#279 = FACE_OUTER_BOUND ( 'NONE', #106, .T. ) ;
#280 = CARTESIAN_POINT ( 'NONE',  ( -0.2944486372867092250, 0.000000000000000000, -1.000000000000000000 ) ) ;
#281 = ADVANCED_FACE ( 'NONE', ( #321 ), #14, .T. ) ;
#282 = CARTESIAN_POINT ( 'NONE',  ( -0.1472243186433544737, -0.2550000000000001710, 1.000000000000000000 ) ) ;
#283 = CARTESIAN_POINT ( 'NONE',  ( 0.000000000000000000, 0.000000000000000000, -1.000000000000000000 ) ) ;
#284 = VECTOR ( 'NONE', #312, 39.37007874015748854 ) ;
#285 = ADVANCED_FACE ( 'NONE', ( #232 ), #345, .T. ) ;
#286 = CYLINDRICAL_SURFACE ( 'NONE', #330, 0.3838582677165354173 ) ;
#287 = CARTESIAN_POINT ( 'NONE',  ( -0.2944486372867092250, 0.000000000000000000, 1.000000000000000000 ) ) ;
#288 = ORIENTED_EDGE ( 'NONE', *, *, #132, .T. ) ;
#289 = CARTESIAN_POINT ( 'NONE',  ( -0.3838582677165354173, 0.000000000000000000, 1.000000000000000000 ) ) ;
#290 = UNCERTAINTY_MEASURE_WITH_UNIT (LENGTH_MEASURE( 1.000000000000000082E-05 ), #271, 'distance_accuracy_value', 'NONE');
#291 = CARTESIAN_POINT ( 'NONE',  ( -0.2944486372867092250, 0.000000000000000000, 1.000000000000000000 ) ) ;
#292 = ORIENTED_EDGE ( 'NONE', *, *, #162, .F. ) ;
#293 = SURFACE_STYLE_USAGE ( .BOTH. , #325 ) ;
#294 = EDGE_CURVE ( 'NONE', #20, #161, #193, .T. ) ;
#295 = ORIENTED_EDGE ( 'NONE', *, *, #246, .T. ) ;
#296 = ORIENTED_EDGE ( 'NONE', *, *, #75, .F. ) ;
#297 =( GEOMETRIC_REPRESENTATION_CONTEXT ( 3 ) GLOBAL_UNCERTAINTY_ASSIGNED_CONTEXT ( ( #259 ) ) GLOBAL_UNIT_ASSIGNED_CONTEXT ( ( #276, #100, #189 ) ) REPRESENTATION_CONTEXT ( 'NONE', 'WORKASPACE' ) );
#298 = APPLICATION_CONTEXT ( 'automotive_design' ) ;
#299 = APPLICATION_PROTOCOL_DEFINITION ( 'draft international standard', 'automotive_design', 1998, #254 ) ;
#300 = EDGE_LOOP ( 'NONE', ( #296, #66, #347, #76 ) ) ;
#301 = CARTESIAN_POINT ( 'NONE',  ( -0.1472243186433546402, 0.2550000000000000600, 1.000000000000000000 ) ) ;
#302 = EDGE_CURVE ( 'NONE', #20, #190, #230, .T. ) ;
#303 = DIRECTION ( 'NONE',  ( -0.000000000000000000, -0.000000000000000000, -1.000000000000000000 ) ) ;
#304 = VECTOR ( 'NONE', #200, 39.37007874015748143 ) ;
#305 = SURFACE_STYLE_USAGE ( .BOTH. , #275 ) ;
#306 = ORIENTED_EDGE ( 'NONE', *, *, #252, .F. ) ;
#307 = MANIFOLD_SOLID_BREP ( 'Boss-Extrude1', #118 ) ;
#308 = CARTESIAN_POINT ( 'NONE',  ( 0.000000000000000000, 0.000000000000000000, -1.000000000000000000 ) ) ;
#309 = EDGE_CURVE ( 'NONE', #322, #277, #187, .T. ) ;
#310 = VECTOR ( 'NONE', #91, 39.37007874015748143 ) ;
#311 = CARTESIAN_POINT ( 'NONE',  ( 0.1472243186433546402, -0.2550000000000000600, 1.000000000000000000 ) ) ;
#312 = DIRECTION ( 'NONE',  ( 0.4999999999999997224, 0.8660254037844388186, 0.000000000000000000 ) ) ;
#313 = EDGE_CURVE ( 'NONE', #322, #203, #264, .T. ) ;
#314 = FACE_BOUND ( 'NONE', #121, .T. ) ;
#315 = EDGE_LOOP ( 'NONE', ( #199, #125, #177, #218 ) ) ;
#316 = PLANE ( 'NONE',  #234 ) ;
#317 =( GEOMETRIC_REPRESENTATION_CONTEXT ( 3 ) GLOBAL_UNCERTAINTY_ASSIGNED_CONTEXT ( ( #151 ) ) GLOBAL_UNIT_ASSIGNED_CONTEXT ( ( #267, #77, #78 ) ) REPRESENTATION_CONTEXT ( 'NONE', 'WORKASPACE' ) );
#318 = ADVANCED_BREP_SHAPE_REPRESENTATION ( 'WCP-0792 Rev1', ( #307, #94 ), #297 ) ;
#319 = LINE ( 'NONE', #150, #173 ) ;
#320 = ORIENTED_EDGE ( 'NONE', *, *, #260, .T. ) ;
#321 = FACE_OUTER_BOUND ( 'NONE', #47, .T. ) ;
#322 = VERTEX_POINT ( 'NONE', #301 ) ;
#323 = DIRECTION ( 'NONE',  ( -0.5000000000000002220, 0.8660254037844384856, 0.000000000000000000 ) ) ;
#324 = VECTOR ( 'NONE', #181, 39.37007874015748143 ) ;
#325 = SURFACE_SIDE_STYLE ('',( #16 ) ) ;
#326 = DIRECTION ( 'NONE',  ( -0.000000000000000000, -0.000000000000000000, -1.000000000000000000 ) ) ;
#327 = ORIENTED_EDGE ( 'NONE', *, *, #67, .F. ) ;
#328 = LENGTH_MEASURE_WITH_UNIT ( LENGTH_MEASURE( 0.02539999999999999897 ), #238 );
#329 = ORIENTED_EDGE ( 'NONE', *, *, #343, .F. ) ;
#330 = AXIS2_PLACEMENT_3D ( 'NONE', #28, #172, #11 ) ;
#331 = LENGTH_MEASURE_WITH_UNIT ( LENGTH_MEASURE( 0.02539999999999999897 ), #49 );
#332 = VECTOR ( 'NONE', #72, 39.37007874015748143 ) ;
#333 = CARTESIAN_POINT ( 'NONE',  ( -0.3838582677165354173, 0.000000000000000000, 1.000000000000000000 ) ) ;
#334 = ADVANCED_FACE ( 'NONE', ( #3 ), #163, .T. ) ;
#335 = VERTEX_POINT ( 'NONE', #53 ) ;
#336 = CARTESIAN_POINT ( 'NONE',  ( 0.2944486372867091695, 9.125506018658727786E-17, 1.000000000000000000 ) ) ;
#337 = CARTESIAN_POINT ( 'NONE',  ( 0.2944486372867091695, 9.125506018658727786E-17, 1.000000000000000000 ) ) ;
#338 = FACE_OUTER_BOUND ( 'NONE', #18, .T. ) ;
#339 = DIRECTION ( 'NONE',  ( -0.5000000000000000000, -0.8660254037844385966, 0.000000000000000000 ) ) ;
#340 = PRESENTATION_LAYER_ASSIGNMENT (  '', '', ( #278 ) ) ;
#341 = LINE ( 'NONE', #63, #310 ) ;
#342 = FILL_AREA_STYLE_COLOUR ( '', #256 ) ;
#343 = EDGE_CURVE ( 'NONE', #135, #156, #240, .T. ) ;
#344 = ORIENTED_EDGE ( 'NONE', *, *, #260, .F. ) ;
#345 = CYLINDRICAL_SURFACE ( 'NONE', #103, 0.3838582677165354173 ) ;
#346 = VECTOR ( 'NONE', #261, 39.37007874015748854 ) ;
#347 = ORIENTED_EDGE ( 'NONE', *, *, #205, .T. ) ;
#348 = CARTESIAN_POINT ( 'NONE',  ( -0.2944486372867092805, 0.000000000000000000, 1.000000000000000000 ) ) ;
#349 = PLANE ( 'NONE',  #89 ) ;
#350 = ORIENTED_EDGE ( 'NONE', *, *, #214, .F. ) ;
#351 = AXIS2_PLACEMENT_3D ( 'NONE', #174, #8, #249 ) ;
ENDSEC;
END-ISO-10303-21;
