ISO-10303-21;
HEADER;
FILE_DESCRIPTION (( 'STEP AP214' ),
    '1' );
FILE_NAME ('WCP-0791 Rev1.step',
    '2022-11-29T01:34:30',
    ( '' ),
    ( '' ),
    'SwSTEP 2.0',
    'SolidWorks 2020',
    '' );
FILE_SCHEMA (( 'AUTOMOTIVE_DESIGN' ));
ENDSEC;

DATA;
#1 = ADVANCED_FACE ( 'NONE', ( #215 ), #266, .T. ) ;
#2 = LINE ( 'NONE', #309, #32 ) ;
#3 = STYLED_ITEM ( 'NONE', ( #261 ), #245 ) ;
#4 = LINE ( 'NONE', #247, #146 ) ;
#5 = EDGE_LOOP ( 'NONE', ( #181, #274, #310, #182, #281, #297 ) ) ;
#6 = CARTESIAN_POINT ( 'NONE',  ( 0.3838582677165354173, 4.700907988853029121E-17, 0.5000000000000000000 ) ) ;
#7 = CARTESIAN_POINT ( 'NONE',  ( -0.2944486372867092805, 0.000000000000000000, 0.5000000000000000000 ) ) ;
#8 = LINE ( 'NONE', #89, #276 ) ;
#9 = AXIS2_PLACEMENT_3D ( 'NONE', #87, #66, #257 ) ;
#10 = SHAPE_DEFINITION_REPRESENTATION ( #175, #245 ) ;
#11 = PLANE ( 'NONE',  #151 ) ;
#12 = DIRECTION ( 'NONE',  ( -0.000000000000000000, -0.000000000000000000, -1.000000000000000000 ) ) ;
#13 = VERTEX_POINT ( 'NONE', #344 ) ;
#14 = VECTOR ( 'NONE', #187, 39.37007874015748854 ) ;
#15 = LINE ( 'NONE', #103, #256 ) ;
#16 = EDGE_CURVE ( 'NONE', #91, #45, #128, .T. ) ;
#17 = EDGE_LOOP ( 'NONE', ( #186, #157, #95, #155 ) ) ;
#18 = ORIENTED_EDGE ( 'NONE', *, *, #97, .F. ) ;
#19 = VECTOR ( 'NONE', #188, 39.37007874015748143 ) ;
#20 = VERTEX_POINT ( 'NONE', #51 ) ;
#21 = FACE_BOUND ( 'NONE', #268, .T. ) ;
#22 = EDGE_CURVE ( 'NONE', #232, #45, #100, .T. ) ;
#23 = ORIENTED_EDGE ( 'NONE', *, *, #29, .T. ) ;
#24 = CARTESIAN_POINT ( 'NONE',  ( 0.000000000000000000, 0.000000000000000000, 0.000000000000000000 ) ) ;
#25 = VERTEX_POINT ( 'NONE', #218 ) ;
#26 = FACE_OUTER_BOUND ( 'NONE', #159, .T. ) ;
#27 = CARTESIAN_POINT ( 'NONE',  ( 0.000000000000000000, 0.000000000000000000, 0.5000000000000000000 ) ) ;
#28 = APPLICATION_CONTEXT ( 'automotive_design' ) ;
#29 = EDGE_CURVE ( 'NONE', #304, #320, #4, .T. ) ;
#30 = DIRECTION ( 'NONE',  ( -1.000000000000000000, 0.000000000000000000, 0.000000000000000000 ) ) ;
#31 = ORIENTED_EDGE ( 'NONE', *, *, #165, .F. ) ;
#32 = VECTOR ( 'NONE', #145, 39.37007874015748143 ) ;
#33 = DIRECTION ( 'NONE',  ( 1.000000000000000000, 0.000000000000000000, 0.000000000000000000 ) ) ;
#34 = DIRECTION ( 'NONE',  ( 0.5000000000000000000, 0.8660254037844385966, 0.000000000000000000 ) ) ;
#35 = SURFACE_STYLE_FILL_AREA ( #249 ) ;
#36 = VECTOR ( 'NONE', #324, 39.37007874015748854 ) ;
#37 = ORIENTED_EDGE ( 'NONE', *, *, #22, .T. ) ;
#38 = ADVANCED_FACE ( 'NONE', ( #26 ), #168, .T. ) ;
#39 = LINE ( 'NONE', #227, #282 ) ;
#40 = CARTESIAN_POINT ( 'NONE',  ( 0.2944486372867091695, 9.125506018658727786E-17, 0.5000000000000000000 ) ) ;
#41 =( CONVERSION_BASED_UNIT ( 'INCH', #170 ) LENGTH_UNIT ( ) NAMED_UNIT ( #285 ) );
#42 = COLOUR_RGB ( '',0.8666666666666666963, 0.9098039215686274384, 1.000000000000000000 ) ;
#43 =( LENGTH_UNIT ( ) NAMED_UNIT ( * ) SI_UNIT ( $, .METRE. ) );
#44 = DIRECTION ( 'NONE',  ( -0.4999999999999997224, -0.8660254037844388186, 0.000000000000000000 ) ) ;
#45 = VERTEX_POINT ( 'NONE', #167 ) ;
#46 = DIRECTION ( 'NONE',  ( 0.5000000000000002220, -0.8660254037844384856, 0.000000000000000000 ) ) ;
#47 = EDGE_LOOP ( 'NONE', ( #18, #141, #222, #179 ) ) ;
#48 = EDGE_CURVE ( 'NONE', #131, #241, #216, .T. ) ;
#49 = FACE_OUTER_BOUND ( 'NONE', #112, .T. ) ;
#50 = EDGE_LOOP ( 'NONE', ( #265, #150, #254, #154 ) ) ;
#51 = CARTESIAN_POINT ( 'NONE',  ( 0.1472243186433546402, -0.2550000000000000600, 0.5000000000000000000 ) ) ;
#52 = FACE_BOUND ( 'NONE', #5, .T. ) ;
#53 = EDGE_CURVE ( 'NONE', #69, #25, #56, .T. ) ;
#54 = VECTOR ( 'NONE', #113, 39.37007874015748143 ) ;
#55 = CARTESIAN_POINT ( 'NONE',  ( -0.1472243186433544737, -0.2550000000000001710, 0.5000000000000000000 ) ) ;
#56 = LINE ( 'NONE', #166, #307 ) ;
#57 = ORIENTED_EDGE ( 'NONE', *, *, #48, .F. ) ;
#58 = DIRECTION ( 'NONE',  ( 1.000000000000000000, 0.000000000000000000, 0.000000000000000000 ) ) ;
#59 = VECTOR ( 'NONE', #147, 39.37007874015748854 ) ;
#60 = CARTESIAN_POINT ( 'NONE',  ( 0.000000000000000000, 0.000000000000000000, -0.5000000000000000000 ) ) ;
#61 = DIRECTION ( 'NONE',  ( -0.000000000000000000, -0.000000000000000000, -1.000000000000000000 ) ) ;
#62 = SURFACE_STYLE_USAGE ( .BOTH. , #117 ) ;
#63 = EDGE_CURVE ( 'NONE', #294, #290, #81, .T. ) ;
#64 = ORIENTED_EDGE ( 'NONE', *, *, #235, .F. ) ;
#65 = ADVANCED_FACE ( 'NONE', ( #137 ), #242, .T. ) ;
#66 = DIRECTION ( 'NONE',  ( 0.000000000000000000, 0.000000000000000000, 1.000000000000000000 ) ) ;
#67 = AXIS2_PLACEMENT_3D ( 'NONE', #210, #127, #346 ) ;
#68 = LINE ( 'NONE', #93, #59 ) ;
#69 = VERTEX_POINT ( 'NONE', #330 ) ;
#70 =( LENGTH_UNIT ( ) NAMED_UNIT ( * ) SI_UNIT ( $, .METRE. ) );
#71 = CARTESIAN_POINT ( 'NONE',  ( 0.1472243186433546402, -0.2550000000000000600, 0.5000000000000000000 ) ) ;
#72 = CARTESIAN_POINT ( 'NONE',  ( -0.2944486372867092250, 0.000000000000000000, 0.5000000000000000000 ) ) ;
#73 = ORIENTED_EDGE ( 'NONE', *, *, #271, .T. ) ;
#74 = EDGE_CURVE ( 'NONE', #232, #20, #84, .T. ) ;
#75 = EDGE_LOOP ( 'NONE', ( #172, #64, #246, #23 ) ) ;
#76 = EDGE_CURVE ( 'NONE', #237, #91, #194, .T. ) ;
#77 = DIRECTION ( 'NONE',  ( 0.4999999999999997224, 0.8660254037844388186, 0.000000000000000000 ) ) ;
#78 = ORIENTED_EDGE ( 'NONE', *, *, #74, .F. ) ;
#79 = DIRECTION ( 'NONE',  ( 0.000000000000000000, 0.000000000000000000, 1.000000000000000000 ) ) ;
#80 = DIRECTION ( 'NONE',  ( 1.000000000000000000, 0.000000000000000000, -0.000000000000000000 ) ) ;
#81 = CIRCLE ( 'NONE', #300, 0.3838582677165354173 ) ;
#82 = CARTESIAN_POINT ( 'NONE',  ( -0.1472243186433546402, 0.2550000000000000600, 0.5000000000000000000 ) ) ;
#83 = LINE ( 'NONE', #223, #14 ) ;
#84 = LINE ( 'NONE', #55, #185 ) ;
#85 = VECTOR ( 'NONE', #201, 39.37007874015748854 ) ;
#86 = FACE_OUTER_BOUND ( 'NONE', #104, .T. ) ;
#87 = CARTESIAN_POINT ( 'NONE',  ( 0.000000000000000000, 0.000000000000000000, -0.5000000000000000000 ) ) ;
#88 = VERTEX_POINT ( 'NONE', #6 ) ;
#89 = CARTESIAN_POINT ( 'NONE',  ( 0.1472243186433546402, -0.2550000000000000600, 0.5000000000000000000 ) ) ;
#90 = VECTOR ( 'NONE', #322, 39.37007874015748143 ) ;
#91 = VERTEX_POINT ( 'NONE', #350 ) ;
#92 = DIMENSIONAL_EXPONENTS ( 1.000000000000000000, 0.000000000000000000, 0.000000000000000000, 0.000000000000000000, 0.000000000000000000, 0.000000000000000000, 0.000000000000000000 ) ;
#93 = CARTESIAN_POINT ( 'NONE',  ( -0.1472243186433546402, 0.2550000000000000600, -0.5000000000000000000 ) ) ;
#94 = ORIENTED_EDGE ( 'NONE', *, *, #189, .T. ) ;
#95 = ORIENTED_EDGE ( 'NONE', *, *, #238, .T. ) ;
#96 = CLOSED_SHELL ( 'NONE', ( #111, #303, #139, #65, #279, #1, #214, #226, #38, #348 ) ) ;
#97 = EDGE_CURVE ( 'NONE', #45, #236, #277, .T. ) ;
#98 = PLANE ( 'NONE',  #67 ) ;
#99 = EDGE_CURVE ( 'NONE', #241, #237, #83, .T. ) ;
#100 = LINE ( 'NONE', #213, #90 ) ;
#101 = FILL_AREA_STYLE ('',( #296 ) ) ;
#102 = ORIENTED_EDGE ( 'NONE', *, *, #76, .F. ) ;
#103 = CARTESIAN_POINT ( 'NONE',  ( 0.1472243186433546402, -0.2550000000000000600, -0.5000000000000000000 ) ) ;
#104 = EDGE_LOOP ( 'NONE', ( #31, #125, #315, #94 ) ) ;
#105 = STYLED_ITEM ( 'NONE', ( #280 ), #191 ) ;
#106 = CARTESIAN_POINT ( 'NONE',  ( 0.000000000000000000, 0.000000000000000000, 0.5000000000000000000 ) ) ;
#107 = CARTESIAN_POINT ( 'NONE',  ( 0.2944486372867091695, 9.125506018658727786E-17, -0.5000000000000000000 ) ) ;
#108 = FACE_OUTER_BOUND ( 'NONE', #121, .T. ) ;
#109 = VECTOR ( 'NONE', #331, 39.37007874015748143 ) ;
#110 = DIRECTION ( 'NONE',  ( -1.000000000000000000, 0.000000000000000000, 0.000000000000000000 ) ) ;
#111 = ADVANCED_FACE ( 'NONE', ( #108 ), #138, .T. ) ;
#112 = EDGE_LOOP ( 'NONE', ( #205, #102, #133, #37 ) ) ;
#113 = DIRECTION ( 'NONE',  ( -0.000000000000000000, -0.000000000000000000, -1.000000000000000000 ) ) ;
#114 = LINE ( 'NONE', #148, #85 ) ;
#115 = APPLICATION_PROTOCOL_DEFINITION ( 'draft international standard', 'automotive_design', 1998, #28 ) ;
#116 = AXIS2_PLACEMENT_3D ( 'NONE', #177, #248, #169 ) ;
#117 = SURFACE_SIDE_STYLE ('',( #35 ) ) ;
#118 = DIRECTION ( 'NONE',  ( -0.8660254037844385966, -0.5000000000000001110, 0.000000000000000000 ) ) ;
#119 = CARTESIAN_POINT ( 'NONE',  ( 0.1472243186433546402, -0.2550000000000000600, -0.5000000000000000000 ) ) ;
#120 = AXIS2_PLACEMENT_3D ( 'NONE', #106, #79, #58 ) ;
#121 = EDGE_LOOP ( 'NONE', ( #211, #73, #292, #209 ) ) ;
#122 = EDGE_CURVE ( 'NONE', #13, #88, #293, .T. ) ;
#123 = SURFACE_STYLE_FILL_AREA ( #101 ) ;
#124 =( NAMED_UNIT ( * ) PLANE_ANGLE_UNIT ( ) SI_UNIT ( $, .RADIAN. ) );
#125 = ORIENTED_EDGE ( 'NONE', *, *, #29, .F. ) ;
#126 = EDGE_CURVE ( 'NONE', #241, #25, #243, .T. ) ;
#127 = DIRECTION ( 'NONE',  ( 0.000000000000000000, 0.000000000000000000, 1.000000000000000000 ) ) ;
#128 = LINE ( 'NONE', #234, #36 ) ;
#129 = CIRCLE ( 'NONE', #9, 0.3838582677165354173 ) ;
#130 = CARTESIAN_POINT ( 'NONE',  ( -0.3838582677165354173, 0.000000000000000000, -0.5000000000000000000 ) ) ;
#131 = VERTEX_POINT ( 'NONE', #219 ) ;
#132 =( CONVERSION_BASED_UNIT ( 'INCH', #156 ) LENGTH_UNIT ( ) NAMED_UNIT ( #178 ) );
#133 = ORIENTED_EDGE ( 'NONE', *, *, #327, .T. ) ;
#134 = ORIENTED_EDGE ( 'NONE', *, *, #327, .F. ) ;
#135 = AXIS2_PLACEMENT_3D ( 'NONE', #72, #287, #317 ) ;
#136 = PRODUCT_DEFINITION_CONTEXT ( 'detailed design', #28, 'design' ) ;
#137 = FACE_OUTER_BOUND ( 'NONE', #17, .T. ) ;
#138 = CYLINDRICAL_SURFACE ( 'NONE', #220, 0.3838582677165354173 ) ;
#139 = ADVANCED_FACE ( 'NONE', ( #326, #52 ), #269, .F. ) ;
#140 = CARTESIAN_POINT ( 'NONE',  ( 0.000000000000000000, 0.000000000000000000, -0.5000000000000000000 ) ) ;
#141 = ORIENTED_EDGE ( 'NONE', *, *, #22, .F. ) ;
#142 = CIRCLE ( 'NONE', #200, 0.3838582677165354173 ) ;
#143 = DIRECTION ( 'NONE',  ( 0.000000000000000000, 0.000000000000000000, 1.000000000000000000 ) ) ;
#144 = CARTESIAN_POINT ( 'NONE',  ( 0.000000000000000000, 0.000000000000000000, 0.5000000000000000000 ) ) ;
#145 = DIRECTION ( 'NONE',  ( -0.000000000000000000, -0.000000000000000000, -1.000000000000000000 ) ) ;
#146 = VECTOR ( 'NONE', #302, 39.37007874015748143 ) ;
#147 = DIRECTION ( 'NONE',  ( -0.5000000000000000000, -0.8660254037844385966, 0.000000000000000000 ) ) ;
#148 = CARTESIAN_POINT ( 'NONE',  ( 0.1472243186433546402, -0.2550000000000000600, 0.5000000000000000000 ) ) ;
#149 = EDGE_CURVE ( 'NONE', #88, #13, #142, .T. ) ;
#150 = ORIENTED_EDGE ( 'NONE', *, *, #189, .F. ) ;
#151 = AXIS2_PLACEMENT_3D ( 'NONE', #313, #118, #251 ) ;
#152 = SURFACE_STYLE_USAGE ( .BOTH. , #321 ) ;
#153 = ORIENTED_EDGE ( 'NONE', *, *, #149, .T. ) ;
#154 = ORIENTED_EDGE ( 'NONE', *, *, #126, .T. ) ;
#155 = ORIENTED_EDGE ( 'NONE', *, *, #63, .T. ) ;
#156 = LENGTH_MEASURE_WITH_UNIT ( LENGTH_MEASURE( 0.02539999999999999897 ), #70 );
#157 = ORIENTED_EDGE ( 'NONE', *, *, #122, .F. ) ;
#158 =( GEOMETRIC_REPRESENTATION_CONTEXT ( 3 ) GLOBAL_UNCERTAINTY_ASSIGNED_CONTEXT ( ( #299 ) ) GLOBAL_UNIT_ASSIGNED_CONTEXT ( ( #132, #124, #212 ) ) REPRESENTATION_CONTEXT ( 'NONE', 'WORKASPACE' ) );
#159 = EDGE_LOOP ( 'NONE', ( #341, #258, #347, #184 ) ) ;
#160 = DIRECTION ( 'NONE',  ( 1.000000000000000000, 0.000000000000000000, 0.000000000000000000 ) ) ;
#161 = ORIENTED_EDGE ( 'NONE', *, *, #99, .F. ) ;
#162 = LINE ( 'NONE', #107, #19 ) ;
#163 = AXIS2_PLACEMENT_3D ( 'NONE', #24, #267, #160 ) ;
#164 = DIRECTION ( 'NONE',  ( 1.000000000000000000, 3.479190826162944257E-16, 0.000000000000000000 ) ) ;
#165 = EDGE_CURVE ( 'NONE', #320, #69, #162, .T. ) ;
#166 = CARTESIAN_POINT ( 'NONE',  ( 0.1472243186433545847, 0.2550000000000000600, -0.5000000000000000000 ) ) ;
#167 = CARTESIAN_POINT ( 'NONE',  ( -0.1472243186433545015, -0.2550000000000001710, -0.5000000000000000000 ) ) ;
#168 = PLANE ( 'NONE',  #349 ) ;
#169 = DIRECTION ( 'NONE',  ( 0.000000000000000000, -0.000000000000000000, -1.000000000000000000 ) ) ;
#170 = LENGTH_MEASURE_WITH_UNIT ( LENGTH_MEASURE( 0.02539999999999999897 ), #252 );
#171 = PRODUCT ( 'WCP-0791 Rev1', 'WCP-0791 Rev1', '', ( #239 ) ) ;
#172 = ORIENTED_EDGE ( 'NONE', *, *, #334, .F. ) ;
#173 = FILL_AREA_STYLE_COLOUR ( '', #190 ) ;
#174 = PRODUCT_DEFINITION ( 'UNKNOWN', '', #270, #136 ) ;
#175 = PRODUCT_DEFINITION_SHAPE ( 'NONE', 'NONE',  #174 ) ;
#176 =( NAMED_UNIT ( * ) PLANE_ANGLE_UNIT ( ) SI_UNIT ( $, .RADIAN. ) );
#177 = CARTESIAN_POINT ( 'NONE',  ( 0.1472243186433545847, 0.2550000000000000600, 0.5000000000000000000 ) ) ;
#178 = DIMENSIONAL_EXPONENTS ( 1.000000000000000000, 0.000000000000000000, 0.000000000000000000, 0.000000000000000000, 0.000000000000000000, 0.000000000000000000, 0.000000000000000000 ) ;
#179 = ORIENTED_EDGE ( 'NONE', *, *, #235, .T. ) ;
#180 = APPLICATION_PROTOCOL_DEFINITION ( 'draft international standard', 'automotive_design', 1998, #217 ) ;
#181 = ORIENTED_EDGE ( 'NONE', *, *, #97, .T. ) ;
#182 = ORIENTED_EDGE ( 'NONE', *, *, #53, .T. ) ;
#183 = CARTESIAN_POINT ( 'NONE',  ( 0.2944486372867091695, 9.125506018658727786E-17, -0.5000000000000000000 ) ) ;
#184 = ORIENTED_EDGE ( 'NONE', *, *, #76, .T. ) ;
#185 = VECTOR ( 'NONE', #164, 39.37007874015748143 ) ;
#186 = ORIENTED_EDGE ( 'NONE', *, *, #271, .F. ) ;
#187 = DIRECTION ( 'NONE',  ( -0.5000000000000000000, -0.8660254037844385966, 0.000000000000000000 ) ) ;
#188 = DIRECTION ( 'NONE',  ( -0.5000000000000001110, 0.8660254037844385966, 0.000000000000000000 ) ) ;
#189 = EDGE_CURVE ( 'NONE', #131, #69, #2, .T. ) ;
#190 = COLOUR_RGB ( '',0.8666666666666666963, 0.9098039215686274384, 1.000000000000000000 ) ;
#191 = MANIFOLD_SOLID_BREP ( 'Boss-Extrude1', #96 ) ;
#192 = DIRECTION ( 'NONE',  ( 0.8660254037844387076, -0.5000000000000001110, 0.000000000000000000 ) ) ;
#193 = CARTESIAN_POINT ( 'NONE',  ( -0.1472243186433546402, 0.2550000000000000600, 0.5000000000000000000 ) ) ;
#194 = LINE ( 'NONE', #325, #54 ) ;
#195 = VECTOR ( 'NONE', #46, 39.37007874015748854 ) ;
#196 = CARTESIAN_POINT ( 'NONE',  ( -0.1472243186433544737, -0.2550000000000001710, 0.5000000000000000000 ) ) ;
#197 = PLANE ( 'NONE',  #286 ) ;
#198 = EDGE_CURVE ( 'NONE', #304, #131, #253, .T. ) ;
#199 = EDGE_CURVE ( 'NONE', #25, #91, #68, .T. ) ;
#200 = AXIS2_PLACEMENT_3D ( 'NONE', #305, #143, #33 ) ;
#201 = DIRECTION ( 'NONE',  ( 0.4999999999999997224, 0.8660254037844388186, 0.000000000000000000 ) ) ;
#202 = UNCERTAINTY_MEASURE_WITH_UNIT (LENGTH_MEASURE( 1.000000000000000082E-05 ), #41, 'distance_accuracy_value', 'NONE');
#203 = CARTESIAN_POINT ( 'NONE',  ( -0.1472243186433544737, -0.2550000000000001710, 0.5000000000000000000 ) ) ;
#204 = CARTESIAN_POINT ( 'NONE',  ( -0.2944486372867092250, 0.000000000000000000, 0.5000000000000000000 ) ) ;
#205 = ORIENTED_EDGE ( 'NONE', *, *, #16, .F. ) ;
#206 = PRESENTATION_LAYER_ASSIGNMENT (  '', '', ( #3 ) ) ;
#207 = EDGE_CURVE ( 'NONE', #20, #304, #114, .T. ) ;
#208 = CARTESIAN_POINT ( 'NONE',  ( 0.2944486372867091695, 9.125506018658727786E-17, 0.5000000000000000000 ) ) ;
#209 = ORIENTED_EDGE ( 'NONE', *, *, #238, .F. ) ;
#210 = CARTESIAN_POINT ( 'NONE',  ( 0.000000000000000000, 0.000000000000000000, 0.5000000000000000000 ) ) ;
#211 = ORIENTED_EDGE ( 'NONE', *, *, #149, .F. ) ;
#212 =( NAMED_UNIT ( * ) SI_UNIT ( $, .STERADIAN. ) SOLID_ANGLE_UNIT ( ) );
#213 = CARTESIAN_POINT ( 'NONE',  ( -0.1472243186433544737, -0.2550000000000001710, 0.5000000000000000000 ) ) ;
#214 = ADVANCED_FACE ( 'NONE', ( #86 ), #11, .T. ) ;
#215 = FACE_OUTER_BOUND ( 'NONE', #75, .T. ) ;
#216 = LINE ( 'NONE', #273, #312 ) ;
#217 = APPLICATION_CONTEXT ( 'automotive_design' ) ;
#218 = CARTESIAN_POINT ( 'NONE',  ( -0.1472243186433546402, 0.2550000000000000600, -0.5000000000000000000 ) ) ;
#219 = CARTESIAN_POINT ( 'NONE',  ( 0.1472243186433545847, 0.2550000000000000600, 0.5000000000000000000 ) ) ;
#220 = AXIS2_PLACEMENT_3D ( 'NONE', #144, #351, #221 ) ;
#221 = DIRECTION ( 'NONE',  ( -1.000000000000000000, 0.000000000000000000, 0.000000000000000000 ) ) ;
#222 = ORIENTED_EDGE ( 'NONE', *, *, #74, .T. ) ;
#223 = CARTESIAN_POINT ( 'NONE',  ( -0.1472243186433546402, 0.2550000000000000600, 0.5000000000000000000 ) ) ;
#224 = LINE ( 'NONE', #308, #264 ) ;
#225 = CARTESIAN_POINT ( 'NONE',  ( -0.1472243186433546402, 0.2550000000000000600, 0.5000000000000000000 ) ) ;
#226 = ADVANCED_FACE ( 'NONE', ( #283 ), #284, .T. ) ;
#227 = CARTESIAN_POINT ( 'NONE',  ( 0.3838582677165354173, 4.700907988853029121E-17, 0.5000000000000000000 ) ) ;
#228 = ORIENTED_EDGE ( 'NONE', *, *, #63, .F. ) ;
#229 =( GEOMETRIC_REPRESENTATION_CONTEXT ( 3 ) GLOBAL_UNCERTAINTY_ASSIGNED_CONTEXT ( ( #202 ) ) GLOBAL_UNIT_ASSIGNED_CONTEXT ( ( #41, #176, #311 ) ) REPRESENTATION_CONTEXT ( 'NONE', 'WORKASPACE' ) );
#230 = DIRECTION ( 'NONE',  ( -0.000000000000000000, -0.000000000000000000, -1.000000000000000000 ) ) ;
#231 =( CONVERSION_BASED_UNIT ( 'INCH', #289 ) LENGTH_UNIT ( ) NAMED_UNIT ( #92 ) );
#232 = VERTEX_POINT ( 'NONE', #196 ) ;
#233 = AXIS2_PLACEMENT_3D ( 'NONE', #27, #275, #110 ) ;
#234 = CARTESIAN_POINT ( 'NONE',  ( -0.2944486372867092250, 0.000000000000000000, -0.5000000000000000000 ) ) ;
#235 = EDGE_CURVE ( 'NONE', #20, #236, #8, .T. ) ;
#236 = VERTEX_POINT ( 'NONE', #119 ) ;
#237 = VERTEX_POINT ( 'NONE', #7 ) ;
#238 = EDGE_CURVE ( 'NONE', #13, #294, #224, .T. ) ;
#239 = PRODUCT_CONTEXT ( 'NONE', #217, 'mechanical' ) ;
#240 = MECHANICAL_DESIGN_GEOMETRIC_PRESENTATION_REPRESENTATION (  '', ( #3 ), #316 ) ;
#241 = VERTEX_POINT ( 'NONE', #225 ) ;
#242 = CYLINDRICAL_SURFACE ( 'NONE', #233, 0.3838582677165354173 ) ;
#243 = LINE ( 'NONE', #193, #333 ) ;
#244 = CARTESIAN_POINT ( 'NONE',  ( -0.1472243186433544737, -0.2550000000000001710, -0.5000000000000000000 ) ) ;
#245 = ADVANCED_BREP_SHAPE_REPRESENTATION ( 'WCP-0791 Rev1', ( #191, #163 ), #158 ) ;
#246 = ORIENTED_EDGE ( 'NONE', *, *, #207, .T. ) ;
#247 = CARTESIAN_POINT ( 'NONE',  ( 0.2944486372867091695, 9.125506018658727786E-17, 0.5000000000000000000 ) ) ;
#248 = DIRECTION ( 'NONE',  ( 0.000000000000000000, -1.000000000000000000, 0.000000000000000000 ) ) ;
#249 = FILL_AREA_STYLE ('',( #173 ) ) ;
#250 = MECHANICAL_DESIGN_GEOMETRIC_PRESENTATION_REPRESENTATION (  '', ( #105 ), #229 ) ;
#251 = DIRECTION ( 'NONE',  ( 0.5000000000000001110, -0.8660254037844385966, 0.000000000000000000 ) ) ;
#252 =( LENGTH_UNIT ( ) NAMED_UNIT ( * ) SI_UNIT ( $, .METRE. ) );
#253 = LINE ( 'NONE', #40, #255 ) ;
#254 = ORIENTED_EDGE ( 'NONE', *, *, #48, .T. ) ;
#255 = VECTOR ( 'NONE', #332, 39.37007874015748143 ) ;
#256 = VECTOR ( 'NONE', #77, 39.37007874015748854 ) ;
#257 = DIRECTION ( 'NONE',  ( 1.000000000000000000, 0.000000000000000000, 0.000000000000000000 ) ) ;
#258 = ORIENTED_EDGE ( 'NONE', *, *, #126, .F. ) ;
#259 =( NAMED_UNIT ( * ) PLANE_ANGLE_UNIT ( ) SI_UNIT ( $, .RADIAN. ) );
#260 = ORIENTED_EDGE ( 'NONE', *, *, #291, .F. ) ;
#261 = PRESENTATION_STYLE_ASSIGNMENT (( #152 ) ) ;
#262 = ORIENTED_EDGE ( 'NONE', *, *, #122, .T. ) ;
#263 = PRODUCT_RELATED_PRODUCT_CATEGORY ( 'part', '', ( #171 ) ) ;
#264 = VECTOR ( 'NONE', #230, 39.37007874015748143 ) ;
#265 = ORIENTED_EDGE ( 'NONE', *, *, #53, .F. ) ;
#266 = PLANE ( 'NONE',  #337 ) ;
#267 = DIRECTION ( 'NONE',  ( 0.000000000000000000, 0.000000000000000000, 1.000000000000000000 ) ) ;
#268 = EDGE_LOOP ( 'NONE', ( #336, #78, #134, #161, #57, #318 ) ) ;
#269 = PLANE ( 'NONE',  #342 ) ;
#270 = PRODUCT_DEFINITION_FORMATION_WITH_SPECIFIED_SOURCE ( 'ANY', '', #171, .NOT_KNOWN. ) ;
#271 = EDGE_CURVE ( 'NONE', #88, #290, #39, .T. ) ;
#272 = DIRECTION ( 'NONE',  ( -1.000000000000000000, 0.000000000000000000, 0.000000000000000000 ) ) ;
#273 = CARTESIAN_POINT ( 'NONE',  ( 0.1472243186433545847, 0.2550000000000000600, 0.5000000000000000000 ) ) ;
#274 = ORIENTED_EDGE ( 'NONE', *, *, #334, .T. ) ;
#275 = DIRECTION ( 'NONE',  ( -0.000000000000000000, -0.000000000000000000, -1.000000000000000000 ) ) ;
#276 = VECTOR ( 'NONE', #12, 39.37007874015748143 ) ;
#277 = LINE ( 'NONE', #244, #109 ) ;
#278 = DIRECTION ( 'NONE',  ( -1.000000000000000000, -3.479190826162944257E-16, 0.000000000000000000 ) ) ;
#279 = ADVANCED_FACE ( 'NONE', ( #338 ), #197, .T. ) ;
#280 = PRESENTATION_STYLE_ASSIGNMENT (( #62 ) ) ;
#281 = ORIENTED_EDGE ( 'NONE', *, *, #199, .T. ) ;
#282 = VECTOR ( 'NONE', #61, 39.37007874015748143 ) ;
#283 = FACE_OUTER_BOUND ( 'NONE', #50, .T. ) ;
#284 = PLANE ( 'NONE',  #116 ) ;
#285 = DIMENSIONAL_EXPONENTS ( 1.000000000000000000, 0.000000000000000000, 0.000000000000000000, 0.000000000000000000, 0.000000000000000000, 0.000000000000000000, 0.000000000000000000 ) ;
#286 = AXIS2_PLACEMENT_3D ( 'NONE', #203, #314, #278 ) ;
#287 = DIRECTION ( 'NONE',  ( 0.8660254037844385966, 0.5000000000000003331, -0.000000000000000000 ) ) ;
#288 = DIRECTION ( 'NONE',  ( -0.8660254037844388186, 0.4999999999999997224, 0.000000000000000000 ) ) ;
#289 = LENGTH_MEASURE_WITH_UNIT ( LENGTH_MEASURE( 0.02539999999999999897 ), #43 );
#290 = VERTEX_POINT ( 'NONE', #335 ) ;
#291 = EDGE_CURVE ( 'NONE', #290, #294, #129, .T. ) ;
#292 = ORIENTED_EDGE ( 'NONE', *, *, #291, .T. ) ;
#293 = CIRCLE ( 'NONE', #120, 0.3838582677165354173 ) ;
#294 = VERTEX_POINT ( 'NONE', #130 ) ;
#295 = UNCERTAINTY_MEASURE_WITH_UNIT (LENGTH_MEASURE( 1.000000000000000082E-05 ), #231, 'distance_accuracy_value', 'NONE');
#296 = FILL_AREA_STYLE_COLOUR ( '', #42 ) ;
#297 = ORIENTED_EDGE ( 'NONE', *, *, #16, .T. ) ;
#298 = DIRECTION ( 'NONE',  ( -0.000000000000000000, -0.000000000000000000, -1.000000000000000000 ) ) ;
#299 = UNCERTAINTY_MEASURE_WITH_UNIT (LENGTH_MEASURE( 1.000000000000000082E-05 ), #132, 'distance_accuracy_value', 'NONE');
#300 = AXIS2_PLACEMENT_3D ( 'NONE', #140, #301, #306 ) ;
#301 = DIRECTION ( 'NONE',  ( 0.000000000000000000, 0.000000000000000000, 1.000000000000000000 ) ) ;
#302 = DIRECTION ( 'NONE',  ( -0.000000000000000000, -0.000000000000000000, -1.000000000000000000 ) ) ;
#303 = ADVANCED_FACE ( 'NONE', ( #343, #21 ), #98, .T. ) ;
#304 = VERTEX_POINT ( 'NONE', #208 ) ;
#305 = CARTESIAN_POINT ( 'NONE',  ( 0.000000000000000000, 0.000000000000000000, 0.5000000000000000000 ) ) ;
#306 = DIRECTION ( 'NONE',  ( 1.000000000000000000, 0.000000000000000000, 0.000000000000000000 ) ) ;
#307 = VECTOR ( 'NONE', #272, 39.37007874015748143 ) ;
#308 = CARTESIAN_POINT ( 'NONE',  ( -0.3838582677165354173, 0.000000000000000000, 0.5000000000000000000 ) ) ;
#309 = CARTESIAN_POINT ( 'NONE',  ( 0.1472243186433545847, 0.2550000000000000600, 0.5000000000000000000 ) ) ;
#310 = ORIENTED_EDGE ( 'NONE', *, *, #165, .T. ) ;
#311 =( NAMED_UNIT ( * ) SI_UNIT ( $, .STERADIAN. ) SOLID_ANGLE_UNIT ( ) );
#312 = VECTOR ( 'NONE', #30, 39.37007874015748143 ) ;
#313 = CARTESIAN_POINT ( 'NONE',  ( 0.2944486372867091695, 9.125506018658727786E-17, 0.5000000000000000000 ) ) ;
#314 = DIRECTION ( 'NONE',  ( -3.479190826162944257E-16, 1.000000000000000000, 0.000000000000000000 ) ) ;
#315 = ORIENTED_EDGE ( 'NONE', *, *, #198, .T. ) ;
#316 =( GEOMETRIC_REPRESENTATION_CONTEXT ( 3 ) GLOBAL_UNCERTAINTY_ASSIGNED_CONTEXT ( ( #295 ) ) GLOBAL_UNIT_ASSIGNED_CONTEXT ( ( #231, #259, #340 ) ) REPRESENTATION_CONTEXT ( 'NONE', 'WORKASPACE' ) );
#317 = DIRECTION ( 'NONE',  ( -0.5000000000000002220, 0.8660254037844384856, 0.000000000000000000 ) ) ;
#318 = ORIENTED_EDGE ( 'NONE', *, *, #198, .F. ) ;
#319 = LINE ( 'NONE', #204, #195 ) ;
#320 = VERTEX_POINT ( 'NONE', #183 ) ;
#321 = SURFACE_SIDE_STYLE ('',( #123 ) ) ;
#322 = DIRECTION ( 'NONE',  ( -0.000000000000000000, -0.000000000000000000, -1.000000000000000000 ) ) ;
#323 = PLANE ( 'NONE',  #135 ) ;
#324 = DIRECTION ( 'NONE',  ( 0.5000000000000002220, -0.8660254037844384856, 0.000000000000000000 ) ) ;
#325 = CARTESIAN_POINT ( 'NONE',  ( -0.2944486372867092250, 0.000000000000000000, 0.5000000000000000000 ) ) ;
#326 = FACE_OUTER_BOUND ( 'NONE', #339, .T. ) ;
#327 = EDGE_CURVE ( 'NONE', #237, #232, #319, .T. ) ;
#328 = PRESENTATION_LAYER_ASSIGNMENT (  '', '', ( #105 ) ) ;
#329 = DIRECTION ( 'NONE',  ( 0.000000000000000000, 0.000000000000000000, 1.000000000000000000 ) ) ;
#330 = CARTESIAN_POINT ( 'NONE',  ( 0.1472243186433545847, 0.2550000000000000600, -0.5000000000000000000 ) ) ;
#331 = DIRECTION ( 'NONE',  ( 1.000000000000000000, 3.479190826162944257E-16, 0.000000000000000000 ) ) ;
#332 = DIRECTION ( 'NONE',  ( -0.5000000000000001110, 0.8660254037844385966, 0.000000000000000000 ) ) ;
#333 = VECTOR ( 'NONE', #298, 39.37007874015748143 ) ;
#334 = EDGE_CURVE ( 'NONE', #236, #320, #15, .T. ) ;
#335 = CARTESIAN_POINT ( 'NONE',  ( 0.3838582677165354173, 4.700907988853029121E-17, -0.5000000000000000000 ) ) ;
#336 = ORIENTED_EDGE ( 'NONE', *, *, #207, .F. ) ;
#337 = AXIS2_PLACEMENT_3D ( 'NONE', #71, #288, #44 ) ;
#338 = FACE_OUTER_BOUND ( 'NONE', #47, .T. ) ;
#339 = EDGE_LOOP ( 'NONE', ( #228, #260 ) ) ;
#340 =( NAMED_UNIT ( * ) SI_UNIT ( $, .STERADIAN. ) SOLID_ANGLE_UNIT ( ) );
#341 = ORIENTED_EDGE ( 'NONE', *, *, #199, .F. ) ;
#342 = AXIS2_PLACEMENT_3D ( 'NONE', #60, #329, #80 ) ;
#343 = FACE_OUTER_BOUND ( 'NONE', #345, .T. ) ;
#344 = CARTESIAN_POINT ( 'NONE',  ( -0.3838582677165354173, 0.000000000000000000, 0.5000000000000000000 ) ) ;
#345 = EDGE_LOOP ( 'NONE', ( #262, #153 ) ) ;
#346 = DIRECTION ( 'NONE',  ( 1.000000000000000000, 0.000000000000000000, -0.000000000000000000 ) ) ;
#347 = ORIENTED_EDGE ( 'NONE', *, *, #99, .T. ) ;
#348 = ADVANCED_FACE ( 'NONE', ( #49 ), #323, .T. ) ;
#349 = AXIS2_PLACEMENT_3D ( 'NONE', #82, #192, #34 ) ;
#350 = CARTESIAN_POINT ( 'NONE',  ( -0.2944486372867092250, 0.000000000000000000, -0.5000000000000000000 ) ) ;
#351 = DIRECTION ( 'NONE',  ( -0.000000000000000000, -0.000000000000000000, -1.000000000000000000 ) ) ;
ENDSEC;
END-ISO-10303-21;
