ISO-10303-21;
HEADER;
FILE_DESCRIPTION (( 'STEP AP214' ),
    '1' );
FILE_NAME ('WCP-0790 Rev1.step',
    '2022-11-29T01:34:26',
    ( '' ),
    ( '' ),
    'SwSTEP 2.0',
    'SolidWorks 2020',
    '' );
FILE_SCHEMA (( 'AUTOMOTIVE_DESIGN' ));
ENDSEC;

DATA;
#1 = EDGE_CURVE ( 'NONE', #342, #95, #205, .T. ) ;
#2 = DIRECTION ( 'NONE',  ( -3.479190826162944257E-16, 1.000000000000000000, 0.000000000000000000 ) ) ;
#3 = COLOUR_RGB ( '',0.8666666666666666963, 0.9098039215686274384, 1.000000000000000000 ) ;
#4 = ADVANCED_FACE ( 'NONE', ( #298 ), #55, .T. ) ;
#5 = DIRECTION ( 'NONE',  ( -0.000000000000000000, -0.000000000000000000, -1.000000000000000000 ) ) ;
#6 = CARTESIAN_POINT ( 'NONE',  ( -0.2944486372867092805, 0.000000000000000000, 0.2500000000000000000 ) ) ;
#7 = ADVANCED_FACE ( 'NONE', ( #48 ), #146, .T. ) ;
#8 = CARTESIAN_POINT ( 'NONE',  ( -0.2944486372867092250, 0.000000000000000000, -0.2500000000000000000 ) ) ;
#9 = MANIFOLD_SOLID_BREP ( 'Boss-Extrude1', #45 ) ;
#10 = CARTESIAN_POINT ( 'NONE',  ( 0.000000000000000000, 0.000000000000000000, -0.2500000000000000000 ) ) ;
#11 = ORIENTED_EDGE ( 'NONE', *, *, #1, .F. ) ;
#12 = CARTESIAN_POINT ( 'NONE',  ( -0.1472243186433544737, -0.2550000000000001710, 0.2500000000000000000 ) ) ;
#13 = FACE_BOUND ( 'NONE', #50, .T. ) ;
#14 = VECTOR ( 'NONE', #250, 39.37007874015748854 ) ;
#15 = ORIENTED_EDGE ( 'NONE', *, *, #191, .F. ) ;
#16 = AXIS2_PLACEMENT_3D ( 'NONE', #172, #145, #348 ) ;
#17 = LENGTH_MEASURE_WITH_UNIT ( LENGTH_MEASURE( 0.02539999999999999897 ), #344 );
#18 = VERTEX_POINT ( 'NONE', #104 ) ;
#19 = LENGTH_MEASURE_WITH_UNIT ( LENGTH_MEASURE( 0.02539999999999999897 ), #204 );
#20 = EDGE_LOOP ( 'NONE', ( #197, #345, #293, #79 ) ) ;
#21 = CIRCLE ( 'NONE', #319, 0.3838582677165354173 ) ;
#22 =( CONVERSION_BASED_UNIT ( 'INCH', #17 ) LENGTH_UNIT ( ) NAMED_UNIT ( #69 ) );
#23 = VERTEX_POINT ( 'NONE', #106 ) ;
#24 = PRESENTATION_STYLE_ASSIGNMENT (( #265 ) ) ;
#25 = ORIENTED_EDGE ( 'NONE', *, *, #214, .F. ) ;
#26 = APPLICATION_PROTOCOL_DEFINITION ( 'draft international standard', 'automotive_design', 1998, #325 ) ;
#27 = CARTESIAN_POINT ( 'NONE',  ( 0.000000000000000000, 0.000000000000000000, 0.2500000000000000000 ) ) ;
#28 = VECTOR ( 'NONE', #304, 39.37007874015748143 ) ;
#29 = DIRECTION ( 'NONE',  ( 1.000000000000000000, 0.000000000000000000, -0.000000000000000000 ) ) ;
#30 = EDGE_CURVE ( 'NONE', #168, #151, #73, .T. ) ;
#31 = LINE ( 'NONE', #299, #305 ) ;
#32 = DIRECTION ( 'NONE',  ( 0.000000000000000000, 0.000000000000000000, 1.000000000000000000 ) ) ;
#33 = ORIENTED_EDGE ( 'NONE', *, *, #94, .T. ) ;
#34 = MECHANICAL_DESIGN_GEOMETRIC_PRESENTATION_REPRESENTATION (  '', ( #343 ), #115 ) ;
#35 = CARTESIAN_POINT ( 'NONE',  ( 0.1472243186433545847, 0.2550000000000000600, 0.2500000000000000000 ) ) ;
#36 = SURFACE_STYLE_FILL_AREA ( #331 ) ;
#37 = EDGE_CURVE ( 'NONE', #89, #342, #158, .T. ) ;
#38 = DIRECTION ( 'NONE',  ( 0.000000000000000000, 0.000000000000000000, 1.000000000000000000 ) ) ;
#39 = VECTOR ( 'NONE', #212, 39.37007874015748143 ) ;
#40 = DIRECTION ( 'NONE',  ( 1.000000000000000000, 0.000000000000000000, 0.000000000000000000 ) ) ;
#41 = EDGE_LOOP ( 'NONE', ( #123, #49, #310, #347 ) ) ;
#42 = DIRECTION ( 'NONE',  ( -0.5000000000000001110, 0.8660254037844385966, 0.000000000000000000 ) ) ;
#43 = CARTESIAN_POINT ( 'NONE',  ( -0.1472243186433544737, -0.2550000000000001710, -0.2500000000000000000 ) ) ;
#44 = EDGE_LOOP ( 'NONE', ( #154, #261 ) ) ;
#45 = CLOSED_SHELL ( 'NONE', ( #294, #292, #81, #4, #65, #303, #7, #85, #60, #142 ) ) ;
#46 = CARTESIAN_POINT ( 'NONE',  ( 0.1472243186433546402, -0.2550000000000000600, 0.2500000000000000000 ) ) ;
#47 = AXIS2_PLACEMENT_3D ( 'NONE', #27, #128, #318 ) ;
#48 = FACE_OUTER_BOUND ( 'NONE', #99, .T. ) ;
#49 = ORIENTED_EDGE ( 'NONE', *, *, #203, .F. ) ;
#50 = EDGE_LOOP ( 'NONE', ( #340, #266, #119, #113, #74, #11 ) ) ;
#51 = AXIS2_PLACEMENT_3D ( 'NONE', #135, #160, #218 ) ;
#52 = ORIENTED_EDGE ( 'NONE', *, *, #275, .T. ) ;
#53 = DIMENSIONAL_EXPONENTS ( 1.000000000000000000, 0.000000000000000000, 0.000000000000000000, 0.000000000000000000, 0.000000000000000000, 0.000000000000000000, 0.000000000000000000 ) ;
#54 = CARTESIAN_POINT ( 'NONE',  ( 0.000000000000000000, 0.000000000000000000, 0.000000000000000000 ) ) ;
#55 = CYLINDRICAL_SURFACE ( 'NONE', #47, 0.3838582677165354173 ) ;
#56 = CARTESIAN_POINT ( 'NONE',  ( -0.2944486372867092250, 0.000000000000000000, 0.2500000000000000000 ) ) ;
#57 = PRODUCT_DEFINITION_CONTEXT ( 'detailed design', #325, 'design' ) ;
#58 = CARTESIAN_POINT ( 'NONE',  ( 0.1472243186433545847, 0.2550000000000000600, 0.2500000000000000000 ) ) ;
#59 = VECTOR ( 'NONE', #143, 39.37007874015748143 ) ;
#60 = ADVANCED_FACE ( 'NONE', ( #243 ), #302, .T. ) ;
#61 = CARTESIAN_POINT ( 'NONE',  ( -0.2944486372867092250, 0.000000000000000000, 0.2500000000000000000 ) ) ;
#62 = DIRECTION ( 'NONE',  ( -1.000000000000000000, 0.000000000000000000, 0.000000000000000000 ) ) ;
#63 = EDGE_CURVE ( 'NONE', #256, #76, #278, .T. ) ;
#64 = ORIENTED_EDGE ( 'NONE', *, *, #185, .T. ) ;
#65 = ADVANCED_FACE ( 'NONE', ( #273 ), #350, .T. ) ;
#66 = LINE ( 'NONE', #8, #159 ) ;
#67 = CARTESIAN_POINT ( 'NONE',  ( -0.1472243186433546402, 0.2550000000000000600, -0.2500000000000000000 ) ) ;
#68 = LINE ( 'NONE', #46, #300 ) ;
#69 = DIMENSIONAL_EXPONENTS ( 1.000000000000000000, 0.000000000000000000, 0.000000000000000000, 0.000000000000000000, 0.000000000000000000, 0.000000000000000000, 0.000000000000000000 ) ;
#70 = DIRECTION ( 'NONE',  ( -0.000000000000000000, -0.000000000000000000, -1.000000000000000000 ) ) ;
#71 = ORIENTED_EDGE ( 'NONE', *, *, #191, .T. ) ;
#72 = FILL_AREA_STYLE_COLOUR ( '', #3 ) ;
#73 = LINE ( 'NONE', #56, #190 ) ;
#74 = ORIENTED_EDGE ( 'NONE', *, *, #242, .F. ) ;
#75 = EDGE_CURVE ( 'NONE', #237, #151, #31, .T. ) ;
#76 = VERTEX_POINT ( 'NONE', #351 ) ;
#77 = VECTOR ( 'NONE', #156, 39.37007874015748143 ) ;
#78 = PLANE ( 'NONE',  #16 ) ;
#79 = ORIENTED_EDGE ( 'NONE', *, *, #30, .T. ) ;
#80 = DIRECTION ( 'NONE',  ( -1.000000000000000000, -3.479190826162944257E-16, 0.000000000000000000 ) ) ;
#81 = ADVANCED_FACE ( 'NONE', ( #215, #270 ), #180, .F. ) ;
#82 = AXIS2_PLACEMENT_3D ( 'NONE', #165, #112, #169 ) ;
#83 = CARTESIAN_POINT ( 'NONE',  ( 0.000000000000000000, 0.000000000000000000, -0.2500000000000000000 ) ) ;
#84 = FACE_OUTER_BOUND ( 'NONE', #322, .T. ) ;
#85 = ADVANCED_FACE ( 'NONE', ( #84 ), #105, .T. ) ;
#86 = AXIS2_PLACEMENT_3D ( 'NONE', #121, #70, #317 ) ;
#87 = CARTESIAN_POINT ( 'NONE',  ( 0.1472243186433545847, 0.2550000000000000600, 0.2500000000000000000 ) ) ;
#88 = CARTESIAN_POINT ( 'NONE',  ( -0.2944486372867092250, 0.000000000000000000, -0.2500000000000000000 ) ) ;
#89 = VERTEX_POINT ( 'NONE', #328 ) ;
#90 = CARTESIAN_POINT ( 'NONE',  ( -0.1472243186433544737, -0.2550000000000001710, 0.2500000000000000000 ) ) ;
#91 = CARTESIAN_POINT ( 'NONE',  ( -0.1472243186433546402, 0.2550000000000000600, 0.2500000000000000000 ) ) ;
#92 = CARTESIAN_POINT ( 'NONE',  ( 0.2944486372867091695, 9.125506018658727786E-17, -0.2500000000000000000 ) ) ;
#93 = ORIENTED_EDGE ( 'NONE', *, *, #30, .F. ) ;
#94 = EDGE_CURVE ( 'NONE', #95, #23, #187, .T. ) ;
#95 = VERTEX_POINT ( 'NONE', #58 ) ;
#96 = AXIS2_PLACEMENT_3D ( 'NONE', #61, #114, #336 ) ;
#97 = ORIENTED_EDGE ( 'NONE', *, *, #138, .F. ) ;
#98 = EDGE_CURVE ( 'NONE', #127, #297, #276, .T. ) ;
#99 = EDGE_LOOP ( 'NONE', ( #323, #25, #150, #33 ) ) ;
#100 = ORIENTED_EDGE ( 'NONE', *, *, #98, .T. ) ;
#101 = PLANE ( 'NONE',  #257 ) ;
#102 = ORIENTED_EDGE ( 'NONE', *, *, #235, .T. ) ;
#103 = VECTOR ( 'NONE', #234, 39.37007874015748143 ) ;
#104 = CARTESIAN_POINT ( 'NONE',  ( 0.3838582677165354173, 4.700907988853029121E-17, 0.2500000000000000000 ) ) ;
#105 = PLANE ( 'NONE',  #129 ) ;
#106 = CARTESIAN_POINT ( 'NONE',  ( 0.1472243186433545847, 0.2550000000000000600, -0.2500000000000000000 ) ) ;
#107 = CARTESIAN_POINT ( 'NONE',  ( 0.1472243186433545847, 0.2550000000000000600, 0.2500000000000000000 ) ) ;
#108 = CARTESIAN_POINT ( 'NONE',  ( 0.3838582677165354173, 4.700907988853029121E-17, -0.2500000000000000000 ) ) ;
#109 = PRESENTATION_LAYER_ASSIGNMENT (  '', '', ( #343 ) ) ;
#110 = EDGE_CURVE ( 'NONE', #168, #127, #111, .T. ) ;
#111 = LINE ( 'NONE', #333, #14 ) ;
#112 = DIRECTION ( 'NONE',  ( 0.000000000000000000, 0.000000000000000000, 1.000000000000000000 ) ) ;
#113 = ORIENTED_EDGE ( 'NONE', *, *, #252, .F. ) ;
#114 = DIRECTION ( 'NONE',  ( 0.8660254037844385966, 0.5000000000000003331, -0.000000000000000000 ) ) ;
#115 =( GEOMETRIC_REPRESENTATION_CONTEXT ( 3 ) GLOBAL_UNCERTAINTY_ASSIGNED_CONTEXT ( ( #271 ) ) GLOBAL_UNIT_ASSIGNED_CONTEXT ( ( #306, #301, #245 ) ) REPRESENTATION_CONTEXT ( 'NONE', 'WORKASPACE' ) );
#116 = DIRECTION ( 'NONE',  ( 1.000000000000000000, 0.000000000000000000, 0.000000000000000000 ) ) ;
#117 = ORIENTED_EDGE ( 'NONE', *, *, #98, .F. ) ;
#118 =( NAMED_UNIT ( * ) SI_UNIT ( $, .STERADIAN. ) SOLID_ANGLE_UNIT ( ) );
#119 = ORIENTED_EDGE ( 'NONE', *, *, #110, .F. ) ;
#120 = EDGE_LOOP ( 'NONE', ( #291, #264, #64, #207, #240, #102 ) ) ;
#121 = CARTESIAN_POINT ( 'NONE',  ( 0.000000000000000000, 0.000000000000000000, 0.2500000000000000000 ) ) ;
#122 = VECTOR ( 'NONE', #221, 39.37007874015748143 ) ;
#123 = ORIENTED_EDGE ( 'NONE', *, *, #157, .F. ) ;
#124 = FACE_OUTER_BOUND ( 'NONE', #41, .T. ) ;
#125 = ORIENTED_EDGE ( 'NONE', *, *, #63, .F. ) ;
#126 = CARTESIAN_POINT ( 'NONE',  ( 0.1472243186433546402, -0.2550000000000000600, 0.2500000000000000000 ) ) ;
#127 = VERTEX_POINT ( 'NONE', #90 ) ;
#128 = DIRECTION ( 'NONE',  ( -0.000000000000000000, -0.000000000000000000, -1.000000000000000000 ) ) ;
#129 = AXIS2_PLACEMENT_3D ( 'NONE', #35, #330, #213 ) ;
#130 = LENGTH_MEASURE_WITH_UNIT ( LENGTH_MEASURE( 0.02539999999999999897 ), #155 );
#131 = DIRECTION ( 'NONE',  ( 0.4999999999999997224, 0.8660254037844388186, 0.000000000000000000 ) ) ;
#132 = PRESENTATION_STYLE_ASSIGNMENT (( #189 ) ) ;
#133 = VECTOR ( 'NONE', #223, 39.37007874015748143 ) ;
#134 = ORIENTED_EDGE ( 'NONE', *, *, #307, .F. ) ;
#135 = CARTESIAN_POINT ( 'NONE',  ( -0.1472243186433546402, 0.2550000000000000600, 0.2500000000000000000 ) ) ;
#136 = CARTESIAN_POINT ( 'NONE',  ( -0.3838582677165354173, 0.000000000000000000, 0.2500000000000000000 ) ) ;
#137 = DIRECTION ( 'NONE',  ( 1.000000000000000000, 0.000000000000000000, 0.000000000000000000 ) ) ;
#138 = EDGE_CURVE ( 'NONE', #256, #18, #338, .T. ) ;
#139 = DIRECTION ( 'NONE',  ( -0.000000000000000000, -0.000000000000000000, -1.000000000000000000 ) ) ;
#140 = ORIENTED_EDGE ( 'NONE', *, *, #203, .T. ) ;
#141 = FACE_OUTER_BOUND ( 'NONE', #274, .T. ) ;
#142 = ADVANCED_FACE ( 'NONE', ( #141 ), #161, .T. ) ;
#143 = DIRECTION ( 'NONE',  ( 1.000000000000000000, 3.479190826162944257E-16, 0.000000000000000000 ) ) ;
#144 = PRESENTATION_LAYER_ASSIGNMENT (  '', '', ( #195 ) ) ;
#145 = DIRECTION ( 'NONE',  ( 0.000000000000000000, 0.000000000000000000, 1.000000000000000000 ) ) ;
#146 = PLANE ( 'NONE',  #262 ) ;
#147 =( NAMED_UNIT ( * ) PLANE_ANGLE_UNIT ( ) SI_UNIT ( $, .RADIAN. ) );
#148 = ORIENTED_EDGE ( 'NONE', *, *, #280, .F. ) ;
#149 = CARTESIAN_POINT ( 'NONE',  ( -0.1472243186433545015, -0.2550000000000001710, -0.2500000000000000000 ) ) ;
#150 = ORIENTED_EDGE ( 'NONE', *, *, #1, .T. ) ;
#151 = VERTEX_POINT ( 'NONE', #88 ) ;
#152 = DIRECTION ( 'NONE',  ( 0.000000000000000000, 0.000000000000000000, 1.000000000000000000 ) ) ;
#153 = EDGE_CURVE ( 'NONE', #76, #233, #21, .T. ) ;
#154 = ORIENTED_EDGE ( 'NONE', *, *, #153, .F. ) ;
#155 =( LENGTH_UNIT ( ) NAMED_UNIT ( * ) SI_UNIT ( $, .METRE. ) );
#156 = DIRECTION ( 'NONE',  ( -0.000000000000000000, -0.000000000000000000, -1.000000000000000000 ) ) ;
#157 = EDGE_CURVE ( 'NONE', #314, #247, #339, .T. ) ;
#158 = LINE ( 'NONE', #186, #312 ) ;
#159 = VECTOR ( 'NONE', #254, 39.37007874015748854 ) ;
#160 = DIRECTION ( 'NONE',  ( 0.8660254037844387076, -0.5000000000000001110, 0.000000000000000000 ) ) ;
#161 = PLANE ( 'NONE',  #96 ) ;
#162 = DIRECTION ( 'NONE',  ( 0.000000000000000000, 0.000000000000000000, 1.000000000000000000 ) ) ;
#163 = PRODUCT ( 'WCP-0790 Rev1', 'WCP-0790 Rev1', '', ( #239 ) ) ;
#164 = CIRCLE ( 'NONE', #216, 0.3838582677165354173 ) ;
#165 = CARTESIAN_POINT ( 'NONE',  ( 0.000000000000000000, 0.000000000000000000, 0.2500000000000000000 ) ) ;
#166 = SHAPE_DEFINITION_REPRESENTATION ( #198, #232 ) ;
#167 = CARTESIAN_POINT ( 'NONE',  ( 0.000000000000000000, 0.000000000000000000, 0.2500000000000000000 ) ) ;
#168 = VERTEX_POINT ( 'NONE', #6 ) ;
#169 = DIRECTION ( 'NONE',  ( 1.000000000000000000, 0.000000000000000000, 0.000000000000000000 ) ) ;
#170 =( GEOMETRIC_REPRESENTATION_CONTEXT ( 3 ) GLOBAL_UNCERTAINTY_ASSIGNED_CONTEXT ( ( #181 ) ) GLOBAL_UNIT_ASSIGNED_CONTEXT ( ( #178, #174, #118 ) ) REPRESENTATION_CONTEXT ( 'NONE', 'WORKASPACE' ) );
#171 = VERTEX_POINT ( 'NONE', #283 ) ;
#172 = CARTESIAN_POINT ( 'NONE',  ( 0.000000000000000000, 0.000000000000000000, 0.2500000000000000000 ) ) ;
#173 = EDGE_LOOP ( 'NONE', ( #179, #326 ) ) ;
#174 =( NAMED_UNIT ( * ) PLANE_ANGLE_UNIT ( ) SI_UNIT ( $, .RADIAN. ) );
#175 = EDGE_LOOP ( 'NONE', ( #15, #97, #209, #335 ) ) ;
#176 = FILL_AREA_STYLE ('',( #72 ) ) ;
#177 = ORIENTED_EDGE ( 'NONE', *, *, #235, .F. ) ;
#178 =( CONVERSION_BASED_UNIT ( 'INCH', #19 ) LENGTH_UNIT ( ) NAMED_UNIT ( #53 ) );
#179 = ORIENTED_EDGE ( 'NONE', *, *, #138, .T. ) ;
#180 = PLANE ( 'NONE',  #184 ) ;
#181 = UNCERTAINTY_MEASURE_WITH_UNIT (LENGTH_MEASURE( 1.000000000000000082E-05 ), #178, 'distance_accuracy_value', 'NONE');
#182 = PRODUCT_RELATED_PRODUCT_CATEGORY ( 'part', '', ( #163 ) ) ;
#183 = FILL_AREA_STYLE_COLOUR ( '', #277 ) ;
#184 = AXIS2_PLACEMENT_3D ( 'NONE', #83, #32, #29 ) ;
#185 = EDGE_CURVE ( 'NONE', #247, #23, #315, .T. ) ;
#186 = CARTESIAN_POINT ( 'NONE',  ( 0.1472243186433546402, -0.2550000000000000600, 0.2500000000000000000 ) ) ;
#187 = LINE ( 'NONE', #107, #28 ) ;
#188 = APPLICATION_CONTEXT ( 'automotive_design' ) ;
#189 = SURFACE_STYLE_USAGE ( .BOTH. , #332 ) ;
#190 = VECTOR ( 'NONE', #5, 39.37007874015748143 ) ;
#191 = EDGE_CURVE ( 'NONE', #18, #233, #334, .T. ) ;
#192 = CARTESIAN_POINT ( 'NONE',  ( 0.2944486372867091695, 9.125506018658727786E-17, -0.2500000000000000000 ) ) ;
#193 = LINE ( 'NONE', #12, #122 ) ;
#194 = DIRECTION ( 'NONE',  ( 0.4999999999999997224, 0.8660254037844388186, 0.000000000000000000 ) ) ;
#195 = STYLED_ITEM ( 'NONE', ( #24 ), #232 ) ;
#196 = DIRECTION ( 'NONE',  ( -0.5000000000000000000, -0.8660254037844385966, 0.000000000000000000 ) ) ;
#197 = ORIENTED_EDGE ( 'NONE', *, *, #75, .F. ) ;
#198 = PRODUCT_DEFINITION_SHAPE ( 'NONE', 'NONE',  #222 ) ;
#199 = DIRECTION ( 'NONE',  ( -0.000000000000000000, -0.000000000000000000, -1.000000000000000000 ) ) ;
#200 = EDGE_LOOP ( 'NONE', ( #148, #117, #316, #140 ) ) ;
#201 = ORIENTED_EDGE ( 'NONE', *, *, #242, .T. ) ;
#202 =( GEOMETRIC_REPRESENTATION_CONTEXT ( 3 ) GLOBAL_UNCERTAINTY_ASSIGNED_CONTEXT ( ( #327 ) ) GLOBAL_UNIT_ASSIGNED_CONTEXT ( ( #22, #147, #208 ) ) REPRESENTATION_CONTEXT ( 'NONE', 'WORKASPACE' ) );
#203 = EDGE_CURVE ( 'NONE', #89, #314, #68, .T. ) ;
#204 =( LENGTH_UNIT ( ) NAMED_UNIT ( * ) SI_UNIT ( $, .METRE. ) );
#205 = LINE ( 'NONE', #349, #39 ) ;
#206 = SURFACE_SIDE_STYLE ('',( #296 ) ) ;
#207 = ORIENTED_EDGE ( 'NONE', *, *, #307, .T. ) ;
#208 =( NAMED_UNIT ( * ) SI_UNIT ( $, .STERADIAN. ) SOLID_ANGLE_UNIT ( ) );
#209 = ORIENTED_EDGE ( 'NONE', *, *, #63, .T. ) ;
#210 = VECTOR ( 'NONE', #139, 39.37007874015748143 ) ;
#211 = VECTOR ( 'NONE', #199, 39.37007874015748143 ) ;
#212 = DIRECTION ( 'NONE',  ( -0.5000000000000001110, 0.8660254037844385966, 0.000000000000000000 ) ) ;
#213 = DIRECTION ( 'NONE',  ( 0.000000000000000000, -0.000000000000000000, -1.000000000000000000 ) ) ;
#214 = EDGE_CURVE ( 'NONE', #342, #247, #337, .T. ) ;
#215 = FACE_OUTER_BOUND ( 'NONE', #44, .T. ) ;
#216 = AXIS2_PLACEMENT_3D ( 'NONE', #167, #162, #40 ) ;
#217 = DIRECTION ( 'NONE',  ( -0.5000000000000000000, -0.8660254037844385966, 0.000000000000000000 ) ) ;
#218 = DIRECTION ( 'NONE',  ( 0.5000000000000000000, 0.8660254037844385966, 0.000000000000000000 ) ) ;
#219 = LINE ( 'NONE', #87, #329 ) ;
#220 = AXIS2_PLACEMENT_3D ( 'NONE', #10, #249, #137 ) ;
#221 = DIRECTION ( 'NONE',  ( 1.000000000000000000, 3.479190826162944257E-16, 0.000000000000000000 ) ) ;
#222 = PRODUCT_DEFINITION ( 'UNKNOWN', '', #287, #57 ) ;
#223 = DIRECTION ( 'NONE',  ( -0.000000000000000000, -0.000000000000000000, -1.000000000000000000 ) ) ;
#224 = LINE ( 'NONE', #91, #269 ) ;
#225 = CARTESIAN_POINT ( 'NONE',  ( 0.2944486372867091695, 9.125506018658727786E-17, 0.2500000000000000000 ) ) ;
#226 = ORIENTED_EDGE ( 'NONE', *, *, #227, .T. ) ;
#227 = EDGE_CURVE ( 'NONE', #233, #76, #238, .T. ) ;
#228 = CARTESIAN_POINT ( 'NONE',  ( 0.2944486372867091695, 9.125506018658727786E-17, 0.2500000000000000000 ) ) ;
#229 = DIRECTION ( 'NONE',  ( -0.8660254037844385966, -0.5000000000000001110, 0.000000000000000000 ) ) ;
#230 = AXIS2_PLACEMENT_3D ( 'NONE', #272, #2, #80 ) ;
#231 = CYLINDRICAL_SURFACE ( 'NONE', #86, 0.3838582677165354173 ) ;
#232 = ADVANCED_BREP_SHAPE_REPRESENTATION ( 'WCP-0790 Rev1', ( #9, #295 ), #202 ) ;
#233 = VERTEX_POINT ( 'NONE', #108 ) ;
#234 = DIRECTION ( 'NONE',  ( -1.000000000000000000, 0.000000000000000000, 0.000000000000000000 ) ) ;
#235 = EDGE_CURVE ( 'NONE', #151, #297, #66, .T. ) ;
#236 = ORIENTED_EDGE ( 'NONE', *, *, #244, .F. ) ;
#237 = VERTEX_POINT ( 'NONE', #67 ) ;
#238 = CIRCLE ( 'NONE', #220, 0.3838582677165354173 ) ;
#239 = PRODUCT_CONTEXT ( 'NONE', #188, 'mechanical' ) ;
#240 = ORIENTED_EDGE ( 'NONE', *, *, #75, .T. ) ;
#241 = EDGE_CURVE ( 'NONE', #127, #89, #193, .T. ) ;
#242 = EDGE_CURVE ( 'NONE', #95, #171, #219, .T. ) ;
#243 = FACE_OUTER_BOUND ( 'NONE', #20, .T. ) ;
#244 = EDGE_CURVE ( 'NONE', #18, #256, #164, .T. ) ;
#245 =( NAMED_UNIT ( * ) SI_UNIT ( $, .STERADIAN. ) SOLID_ANGLE_UNIT ( ) );
#246 = MECHANICAL_DESIGN_GEOMETRIC_PRESENTATION_REPRESENTATION (  '', ( #195 ), #170 ) ;
#247 = VERTEX_POINT ( 'NONE', #192 ) ;
#248 = CARTESIAN_POINT ( 'NONE',  ( -0.1472243186433544737, -0.2550000000000001710, 0.2500000000000000000 ) ) ;
#249 = DIRECTION ( 'NONE',  ( 0.000000000000000000, 0.000000000000000000, 1.000000000000000000 ) ) ;
#250 = DIRECTION ( 'NONE',  ( 0.5000000000000002220, -0.8660254037844384856, 0.000000000000000000 ) ) ;
#251 = VECTOR ( 'NONE', #194, 39.37007874015748854 ) ;
#252 = EDGE_CURVE ( 'NONE', #171, #168, #224, .T. ) ;
#253 = CARTESIAN_POINT ( 'NONE',  ( 0.3838582677165354173, 4.700907988853029121E-17, 0.2500000000000000000 ) ) ;
#254 = DIRECTION ( 'NONE',  ( 0.5000000000000002220, -0.8660254037844384856, 0.000000000000000000 ) ) ;
#255 = FACE_OUTER_BOUND ( 'NONE', #173, .T. ) ;
#256 = VERTEX_POINT ( 'NONE', #281 ) ;
#257 = AXIS2_PLACEMENT_3D ( 'NONE', #126, #259, #346 ) ;
#258 = DIMENSIONAL_EXPONENTS ( 1.000000000000000000, 0.000000000000000000, 0.000000000000000000, 0.000000000000000000, 0.000000000000000000, 0.000000000000000000, 0.000000000000000000 ) ;
#259 = DIRECTION ( 'NONE',  ( -0.8660254037844388186, 0.4999999999999997224, 0.000000000000000000 ) ) ;
#260 = CARTESIAN_POINT ( 'NONE',  ( 0.2944486372867091695, 9.125506018658727786E-17, 0.2500000000000000000 ) ) ;
#261 = ORIENTED_EDGE ( 'NONE', *, *, #227, .F. ) ;
#262 = AXIS2_PLACEMENT_3D ( 'NONE', #260, #229, #321 ) ;
#263 = LINE ( 'NONE', #341, #103 ) ;
#264 = ORIENTED_EDGE ( 'NONE', *, *, #157, .T. ) ;
#265 = SURFACE_STYLE_USAGE ( .BOTH. , #206 ) ;
#266 = ORIENTED_EDGE ( 'NONE', *, *, #241, .F. ) ;
#267 = DIRECTION ( 'NONE',  ( 1.000000000000000000, 0.000000000000000000, 0.000000000000000000 ) ) ;
#268 = ORIENTED_EDGE ( 'NONE', *, *, #94, .F. ) ;
#269 = VECTOR ( 'NONE', #196, 39.37007874015748854 ) ;
#270 = FACE_BOUND ( 'NONE', #120, .T. ) ;
#271 = UNCERTAINTY_MEASURE_WITH_UNIT (LENGTH_MEASURE( 1.000000000000000082E-05 ), #306, 'distance_accuracy_value', 'NONE');
#272 = CARTESIAN_POINT ( 'NONE',  ( -0.1472243186433544737, -0.2550000000000001710, 0.2500000000000000000 ) ) ;
#273 = FACE_OUTER_BOUND ( 'NONE', #200, .T. ) ;
#274 = EDGE_LOOP ( 'NONE', ( #177, #93, #285, #100 ) ) ;
#275 = EDGE_CURVE ( 'NONE', #171, #237, #308, .T. ) ;
#276 = LINE ( 'NONE', #248, #133 ) ;
#277 = COLOUR_RGB ( '',0.8666666666666666963, 0.9098039215686274384, 1.000000000000000000 ) ;
#278 = LINE ( 'NONE', #136, #77 ) ;
#279 = CARTESIAN_POINT ( 'NONE',  ( 0.000000000000000000, 0.000000000000000000, -0.2500000000000000000 ) ) ;
#280 = EDGE_CURVE ( 'NONE', #297, #314, #284, .T. ) ;
#281 = CARTESIAN_POINT ( 'NONE',  ( -0.3838582677165354173, 0.000000000000000000, 0.2500000000000000000 ) ) ;
#282 = VECTOR ( 'NONE', #309, 39.37007874015748143 ) ;
#283 = CARTESIAN_POINT ( 'NONE',  ( -0.1472243186433546402, 0.2550000000000000600, 0.2500000000000000000 ) ) ;
#284 = LINE ( 'NONE', #43, #59 ) ;
#285 = ORIENTED_EDGE ( 'NONE', *, *, #110, .T. ) ;
#286 = CARTESIAN_POINT ( 'NONE',  ( 0.1472243186433546402, -0.2550000000000000600, -0.2500000000000000000 ) ) ;
#287 = PRODUCT_DEFINITION_FORMATION_WITH_SPECIFIED_SOURCE ( 'ANY', '', #163, .NOT_KNOWN. ) ;
#288 = APPLICATION_PROTOCOL_DEFINITION ( 'draft international standard', 'automotive_design', 1998, #188 ) ;
#289 = EDGE_LOOP ( 'NONE', ( #236, #71, #226, #125 ) ) ;
#290 = CARTESIAN_POINT ( 'NONE',  ( 0.1472243186433546402, -0.2550000000000000600, -0.2500000000000000000 ) ) ;
#291 = ORIENTED_EDGE ( 'NONE', *, *, #280, .T. ) ;
#292 = ADVANCED_FACE ( 'NONE', ( #255, #13 ), #78, .T. ) ;
#293 = ORIENTED_EDGE ( 'NONE', *, *, #252, .T. ) ;
#294 = ADVANCED_FACE ( 'NONE', ( #320 ), #231, .T. ) ;
#295 = AXIS2_PLACEMENT_3D ( 'NONE', #54, #152, #267 ) ;
#296 = SURFACE_STYLE_FILL_AREA ( #176 ) ;
#297 = VERTEX_POINT ( 'NONE', #149 ) ;
#298 = FACE_OUTER_BOUND ( 'NONE', #175, .T. ) ;
#299 = CARTESIAN_POINT ( 'NONE',  ( -0.1472243186433546402, 0.2550000000000000600, -0.2500000000000000000 ) ) ;
#300 = VECTOR ( 'NONE', #311, 39.37007874015748143 ) ;
#301 =( NAMED_UNIT ( * ) PLANE_ANGLE_UNIT ( ) SI_UNIT ( $, .RADIAN. ) );
#302 = PLANE ( 'NONE',  #51 ) ;
#303 = ADVANCED_FACE ( 'NONE', ( #124 ), #101, .T. ) ;
#304 = DIRECTION ( 'NONE',  ( -0.000000000000000000, -0.000000000000000000, -1.000000000000000000 ) ) ;
#305 = VECTOR ( 'NONE', #217, 39.37007874015748854 ) ;
#306 =( CONVERSION_BASED_UNIT ( 'INCH', #130 ) LENGTH_UNIT ( ) NAMED_UNIT ( #258 ) );
#307 = EDGE_CURVE ( 'NONE', #23, #237, #263, .T. ) ;
#308 = LINE ( 'NONE', #313, #210 ) ;
#309 = DIRECTION ( 'NONE',  ( -0.000000000000000000, -0.000000000000000000, -1.000000000000000000 ) ) ;
#310 = ORIENTED_EDGE ( 'NONE', *, *, #37, .T. ) ;
#311 = DIRECTION ( 'NONE',  ( -0.000000000000000000, -0.000000000000000000, -1.000000000000000000 ) ) ;
#312 = VECTOR ( 'NONE', #131, 39.37007874015748854 ) ;
#313 = CARTESIAN_POINT ( 'NONE',  ( -0.1472243186433546402, 0.2550000000000000600, 0.2500000000000000000 ) ) ;
#314 = VERTEX_POINT ( 'NONE', #290 ) ;
#315 = LINE ( 'NONE', #92, #324 ) ;
#316 = ORIENTED_EDGE ( 'NONE', *, *, #241, .T. ) ;
#317 = DIRECTION ( 'NONE',  ( -1.000000000000000000, 0.000000000000000000, 0.000000000000000000 ) ) ;
#318 = DIRECTION ( 'NONE',  ( -1.000000000000000000, 0.000000000000000000, 0.000000000000000000 ) ) ;
#319 = AXIS2_PLACEMENT_3D ( 'NONE', #279, #38, #116 ) ;
#320 = FACE_OUTER_BOUND ( 'NONE', #289, .T. ) ;
#321 = DIRECTION ( 'NONE',  ( 0.5000000000000001110, -0.8660254037844385966, 0.000000000000000000 ) ) ;
#322 = EDGE_LOOP ( 'NONE', ( #134, #268, #201, #52 ) ) ;
#323 = ORIENTED_EDGE ( 'NONE', *, *, #185, .F. ) ;
#324 = VECTOR ( 'NONE', #42, 39.37007874015748143 ) ;
#325 = APPLICATION_CONTEXT ( 'automotive_design' ) ;
#326 = ORIENTED_EDGE ( 'NONE', *, *, #244, .T. ) ;
#327 = UNCERTAINTY_MEASURE_WITH_UNIT (LENGTH_MEASURE( 1.000000000000000082E-05 ), #22, 'distance_accuracy_value', 'NONE');
#328 = CARTESIAN_POINT ( 'NONE',  ( 0.1472243186433546402, -0.2550000000000000600, 0.2500000000000000000 ) ) ;
#329 = VECTOR ( 'NONE', #62, 39.37007874015748143 ) ;
#330 = DIRECTION ( 'NONE',  ( 0.000000000000000000, -1.000000000000000000, 0.000000000000000000 ) ) ;
#331 = FILL_AREA_STYLE ('',( #183 ) ) ;
#332 = SURFACE_SIDE_STYLE ('',( #36 ) ) ;
#333 = CARTESIAN_POINT ( 'NONE',  ( -0.2944486372867092250, 0.000000000000000000, 0.2500000000000000000 ) ) ;
#334 = LINE ( 'NONE', #253, #211 ) ;
#335 = ORIENTED_EDGE ( 'NONE', *, *, #153, .T. ) ;
#336 = DIRECTION ( 'NONE',  ( -0.5000000000000002220, 0.8660254037844384856, 0.000000000000000000 ) ) ;
#337 = LINE ( 'NONE', #225, #282 ) ;
#338 = CIRCLE ( 'NONE', #82, 0.3838582677165354173 ) ;
#339 = LINE ( 'NONE', #286, #251 ) ;
#340 = ORIENTED_EDGE ( 'NONE', *, *, #37, .F. ) ;
#341 = CARTESIAN_POINT ( 'NONE',  ( 0.1472243186433545847, 0.2550000000000000600, -0.2500000000000000000 ) ) ;
#342 = VERTEX_POINT ( 'NONE', #228 ) ;
#343 = STYLED_ITEM ( 'NONE', ( #132 ), #9 ) ;
#344 =( LENGTH_UNIT ( ) NAMED_UNIT ( * ) SI_UNIT ( $, .METRE. ) );
#345 = ORIENTED_EDGE ( 'NONE', *, *, #275, .F. ) ;
#346 = DIRECTION ( 'NONE',  ( -0.4999999999999997224, -0.8660254037844388186, 0.000000000000000000 ) ) ;
#347 = ORIENTED_EDGE ( 'NONE', *, *, #214, .T. ) ;
#348 = DIRECTION ( 'NONE',  ( 1.000000000000000000, 0.000000000000000000, -0.000000000000000000 ) ) ;
#349 = CARTESIAN_POINT ( 'NONE',  ( 0.2944486372867091695, 9.125506018658727786E-17, 0.2500000000000000000 ) ) ;
#350 = PLANE ( 'NONE',  #230 ) ;
#351 = CARTESIAN_POINT ( 'NONE',  ( -0.3838582677165354173, 0.000000000000000000, -0.2500000000000000000 ) ) ;
ENDSEC;
END-ISO-10303-21;
