ISO-10303-21;
HEADER;
FILE_DESCRIPTION (( 'STEP AP214' ),
    '1' );
FILE_NAME ('WCP-0789 Rev1.step',
    '2022-11-29T01:34:22',
    ( '' ),
    ( '' ),
    'SwSTEP 2.0',
    'SolidWorks 2020',
    '' );
FILE_SCHEMA (( 'AUTOMOTIVE_DESIGN' ));
ENDSEC;

DATA;
#1 = DIRECTION ( 'NONE',  ( 0.5000000000000001110, -0.8660254037844385966, 0.000000000000000000 ) ) ;
#2 = LINE ( 'NONE', #272, #64 ) ;
#3 = VECTOR ( 'NONE', #234, 39.37007874015748143 ) ;
#4 = PRODUCT_DEFINITION_CONTEXT ( 'detailed design', #94, 'design' ) ;
#5 =( LENGTH_UNIT ( ) NAMED_UNIT ( * ) SI_UNIT ( $, .METRE. ) );
#6 = CARTESIAN_POINT ( 'NONE',  ( 0.000000000000000000, 0.000000000000000000, 0.1250000000000000000 ) ) ;
#7 = FACE_OUTER_BOUND ( 'NONE', #71, .T. ) ;
#8 = CARTESIAN_POINT ( 'NONE',  ( 0.1472243186433546402, -0.2550000000000000600, 0.1250000000000000000 ) ) ;
#9 = CARTESIAN_POINT ( 'NONE',  ( 0.1472243186433546402, -0.2550000000000000600, -0.1250000000000000000 ) ) ;
#10 = ORIENTED_EDGE ( 'NONE', *, *, #160, .F. ) ;
#11 = FACE_OUTER_BOUND ( 'NONE', #100, .T. ) ;
#12 = VERTEX_POINT ( 'NONE', #318 ) ;
#13 = FILL_AREA_STYLE_COLOUR ( '', #311 ) ;
#14 = EDGE_CURVE ( 'NONE', #266, #47, #146, .T. ) ;
#15 = AXIS2_PLACEMENT_3D ( 'NONE', #32, #301, #323 ) ;
#16 = CARTESIAN_POINT ( 'NONE',  ( 0.2944486372867091695, 9.125506018658727786E-17, -0.1250000000000000000 ) ) ;
#17 = VECTOR ( 'NONE', #257, 39.37007874015748854 ) ;
#18 = EDGE_LOOP ( 'NONE', ( #46, #45, #24, #158 ) ) ;
#19 = ORIENTED_EDGE ( 'NONE', *, *, #212, .F. ) ;
#20 = PRODUCT_DEFINITION ( 'UNKNOWN', '', #48, #4 ) ;
#21 = ADVANCED_BREP_SHAPE_REPRESENTATION ( 'WCP-0789 Rev1', ( #129, #204 ), #161 ) ;
#22 = LINE ( 'NONE', #321, #90 ) ;
#23 = AXIS2_PLACEMENT_3D ( 'NONE', #333, #205, #203 ) ;
#24 = ORIENTED_EDGE ( 'NONE', *, *, #282, .T. ) ;
#25 = CARTESIAN_POINT ( 'NONE',  ( 0.2944486372867091695, 9.125506018658727786E-17, -0.1250000000000000000 ) ) ;
#26 = CARTESIAN_POINT ( 'NONE',  ( 0.1472243186433545847, 0.2550000000000000600, 0.1250000000000000000 ) ) ;
#27 = AXIS2_PLACEMENT_3D ( 'NONE', #259, #121, #238 ) ;
#28 = CARTESIAN_POINT ( 'NONE',  ( 0.2944486372867091695, 9.125506018658727786E-17, 0.1250000000000000000 ) ) ;
#29 = CARTESIAN_POINT ( 'NONE',  ( -0.1472243186433546402, 0.2550000000000000600, -0.1250000000000000000 ) ) ;
#30 = DIRECTION ( 'NONE',  ( -0.000000000000000000, -0.000000000000000000, -1.000000000000000000 ) ) ;
#31 = DIRECTION ( 'NONE',  ( -0.000000000000000000, -0.000000000000000000, -1.000000000000000000 ) ) ;
#32 = CARTESIAN_POINT ( 'NONE',  ( -0.2944486372867092250, 0.000000000000000000, 0.1250000000000000000 ) ) ;
#33 = CARTESIAN_POINT ( 'NONE',  ( 0.1472243186433546402, -0.2550000000000000600, -0.1250000000000000000 ) ) ;
#34 = LINE ( 'NONE', #230, #17 ) ;
#35 = ORIENTED_EDGE ( 'NONE', *, *, #296, .F. ) ;
#36 = DIRECTION ( 'NONE',  ( 0.000000000000000000, -1.000000000000000000, 0.000000000000000000 ) ) ;
#37 = DIRECTION ( 'NONE',  ( 0.000000000000000000, -0.000000000000000000, -1.000000000000000000 ) ) ;
#38 = SURFACE_SIDE_STYLE ('',( #119 ) ) ;
#39 = PLANE ( 'NONE',  #27 ) ;
#40 = EDGE_LOOP ( 'NONE', ( #232, #131, #317, #239 ) ) ;
#41 = DIRECTION ( 'NONE',  ( -0.4999999999999997224, -0.8660254037844388186, 0.000000000000000000 ) ) ;
#42 = PRESENTATION_LAYER_ASSIGNMENT (  '', '', ( #157 ) ) ;
#43 = LINE ( 'NONE', #264, #74 ) ;
#44 = SHAPE_DEFINITION_REPRESENTATION ( #208, #21 ) ;
#45 = ORIENTED_EDGE ( 'NONE', *, *, #78, .F. ) ;
#46 = ORIENTED_EDGE ( 'NONE', *, *, #195, .F. ) ;
#47 = VERTEX_POINT ( 'NONE', #262 ) ;
#48 = PRODUCT_DEFINITION_FORMATION_WITH_SPECIFIED_SOURCE ( 'ANY', '', #173, .NOT_KNOWN. ) ;
#49 = ORIENTED_EDGE ( 'NONE', *, *, #56, .F. ) ;
#50 =( CONVERSION_BASED_UNIT ( 'INCH', #77 ) LENGTH_UNIT ( ) NAMED_UNIT ( #89 ) );
#51 =( NAMED_UNIT ( * ) PLANE_ANGLE_UNIT ( ) SI_UNIT ( $, .RADIAN. ) );
#52 = UNCERTAINTY_MEASURE_WITH_UNIT (LENGTH_MEASURE( 1.000000000000000082E-05 ), #50, 'distance_accuracy_value', 'NONE');
#53 =( CONVERSION_BASED_UNIT ( 'INCH', #337 ) LENGTH_UNIT ( ) NAMED_UNIT ( #199 ) );
#54 = CARTESIAN_POINT ( 'NONE',  ( -0.1472243186433544737, -0.2550000000000001710, 0.1250000000000000000 ) ) ;
#55 = AXIS2_PLACEMENT_3D ( 'NONE', #327, #31, #137 ) ;
#56 = EDGE_CURVE ( 'NONE', #294, #210, #43, .T. ) ;
#57 = LINE ( 'NONE', #286, #281 ) ;
#58 = DIRECTION ( 'NONE',  ( -0.000000000000000000, -0.000000000000000000, -1.000000000000000000 ) ) ;
#59 = ORIENTED_EDGE ( 'NONE', *, *, #75, .F. ) ;
#60 = DIRECTION ( 'NONE',  ( -0.000000000000000000, -0.000000000000000000, -1.000000000000000000 ) ) ;
#61 = CARTESIAN_POINT ( 'NONE',  ( 0.1472243186433545847, 0.2550000000000000600, 0.1250000000000000000 ) ) ;
#62 = EDGE_LOOP ( 'NONE', ( #343, #145, #70, #260 ) ) ;
#63 = CLOSED_SHELL ( 'NONE', ( #349, #314, #222, #190, #184, #345, #134, #274, #319, #96 ) ) ;
#64 = VECTOR ( 'NONE', #328, 39.37007874015748143 ) ;
#65 = DIRECTION ( 'NONE',  ( 1.000000000000000000, 0.000000000000000000, -0.000000000000000000 ) ) ;
#66 = PRODUCT_CONTEXT ( 'NONE', #351, 'mechanical' ) ;
#67 = FACE_OUTER_BOUND ( 'NONE', #186, .T. ) ;
#68 = ORIENTED_EDGE ( 'NONE', *, *, #227, .T. ) ;
#69 = EDGE_CURVE ( 'NONE', #210, #320, #22, .T. ) ;
#70 = ORIENTED_EDGE ( 'NONE', *, *, #212, .T. ) ;
#71 = EDGE_LOOP ( 'NONE', ( #309, #209, #279, #213 ) ) ;
#72 = EDGE_LOOP ( 'NONE', ( #263, #19 ) ) ;
#73 = EDGE_LOOP ( 'NONE', ( #35, #242, #183, #98 ) ) ;
#74 = VECTOR ( 'NONE', #215, 39.37007874015748854 ) ;
#75 = EDGE_CURVE ( 'NONE', #320, #244, #268, .T. ) ;
#76 = CARTESIAN_POINT ( 'NONE',  ( 0.1472243186433545847, 0.2550000000000000600, 0.1250000000000000000 ) ) ;
#77 = LENGTH_MEASURE_WITH_UNIT ( LENGTH_MEASURE( 0.02539999999999999897 ), #110 );
#78 = EDGE_CURVE ( 'NONE', #125, #244, #105, .T. ) ;
#79 = CARTESIAN_POINT ( 'NONE',  ( -0.2944486372867092250, 0.000000000000000000, 0.1250000000000000000 ) ) ;
#80 = VECTOR ( 'NONE', #144, 39.37007874015748143 ) ;
#81 = PLANE ( 'NONE',  #275 ) ;
#82 = LINE ( 'NONE', #54, #120 ) ;
#83 = PLANE ( 'NONE',  #23 ) ;
#84 = VECTOR ( 'NONE', #303, 39.37007874015748143 ) ;
#85 = CARTESIAN_POINT ( 'NONE',  ( 0.1472243186433545847, 0.2550000000000000600, -0.1250000000000000000 ) ) ;
#86 = DIMENSIONAL_EXPONENTS ( 1.000000000000000000, 0.000000000000000000, 0.000000000000000000, 0.000000000000000000, 0.000000000000000000, 0.000000000000000000, 0.000000000000000000 ) ;
#87 = LINE ( 'NONE', #178, #80 ) ;
#88 = LINE ( 'NONE', #8, #270 ) ;
#89 = DIMENSIONAL_EXPONENTS ( 1.000000000000000000, 0.000000000000000000, 0.000000000000000000, 0.000000000000000000, 0.000000000000000000, 0.000000000000000000, 0.000000000000000000 ) ;
#90 = VECTOR ( 'NONE', #188, 39.37007874015748143 ) ;
#91 = DIRECTION ( 'NONE',  ( 0.000000000000000000, 0.000000000000000000, 1.000000000000000000 ) ) ;
#92 = VERTEX_POINT ( 'NONE', #224 ) ;
#93 = LENGTH_MEASURE_WITH_UNIT ( LENGTH_MEASURE( 0.02539999999999999897 ), #97 );
#94 = APPLICATION_CONTEXT ( 'automotive_design' ) ;
#95 = ORIENTED_EDGE ( 'NONE', *, *, #122, .F. ) ;
#96 = ADVANCED_FACE ( 'NONE', ( #248 ), #219, .T. ) ;
#97 =( LENGTH_UNIT ( ) NAMED_UNIT ( * ) SI_UNIT ( $, .METRE. ) );
#98 = ORIENTED_EDGE ( 'NONE', *, *, #128, .T. ) ;
#99 = ORIENTED_EDGE ( 'NONE', *, *, #156, .T. ) ;
#100 = EDGE_LOOP ( 'NONE', ( #214, #154, #295, #99 ) ) ;
#101 = EDGE_CURVE ( 'NONE', #316, #130, #163, .T. ) ;
#102 = ORIENTED_EDGE ( 'NONE', *, *, #329, .T. ) ;
#103 = VECTOR ( 'NONE', #136, 39.37007874015748143 ) ;
#104 = LINE ( 'NONE', #194, #103 ) ;
#105 = LINE ( 'NONE', #26, #229 ) ;
#106 = EDGE_CURVE ( 'NONE', #92, #12, #299, .T. ) ;
#107 = SURFACE_STYLE_FILL_AREA ( #196 ) ;
#108 = VECTOR ( 'NONE', #141, 39.37007874015748854 ) ;
#109 = PLANE ( 'NONE',  #218 ) ;
#110 =( LENGTH_UNIT ( ) NAMED_UNIT ( * ) SI_UNIT ( $, .METRE. ) );
#111 = DIRECTION ( 'NONE',  ( 0.4999999999999997224, 0.8660254037844388186, 0.000000000000000000 ) ) ;
#112 = DIRECTION ( 'NONE',  ( -1.000000000000000000, 0.000000000000000000, 0.000000000000000000 ) ) ;
#113 = FACE_BOUND ( 'NONE', #174, .T. ) ;
#114 = PLANE ( 'NONE',  #217 ) ;
#115 = ORIENTED_EDGE ( 'NONE', *, *, #329, .F. ) ;
#116 =( NAMED_UNIT ( * ) SI_UNIT ( $, .STERADIAN. ) SOLID_ANGLE_UNIT ( ) );
#117 = FACE_OUTER_BOUND ( 'NONE', #18, .T. ) ;
#118 = ORIENTED_EDGE ( 'NONE', *, *, #128, .F. ) ;
#119 = SURFACE_STYLE_FILL_AREA ( #330 ) ;
#120 = VECTOR ( 'NONE', #167, 39.37007874015748143 ) ;
#121 = DIRECTION ( 'NONE',  ( 0.8660254037844387076, -0.5000000000000001110, 0.000000000000000000 ) ) ;
#122 = EDGE_CURVE ( 'NONE', #316, #171, #348, .T. ) ;
#123 = ORIENTED_EDGE ( 'NONE', *, *, #195, .T. ) ;
#124 = CARTESIAN_POINT ( 'NONE',  ( 0.000000000000000000, 0.000000000000000000, 0.000000000000000000 ) ) ;
#125 = VERTEX_POINT ( 'NONE', #76 ) ;
#126 = VERTEX_POINT ( 'NONE', #191 ) ;
#127 = DIRECTION ( 'NONE',  ( 1.000000000000000000, 0.000000000000000000, 0.000000000000000000 ) ) ;
#128 = EDGE_CURVE ( 'NONE', #171, #92, #164, .T. ) ;
#129 = MANIFOLD_SOLID_BREP ( 'Boss-Extrude1', #63 ) ;
#130 = VERTEX_POINT ( 'NONE', #29 ) ;
#131 = ORIENTED_EDGE ( 'NONE', *, *, #267, .F. ) ;
#132 = CIRCLE ( 'NONE', #332, 0.3838582677165354173 ) ;
#133 = FILL_AREA_STYLE_COLOUR ( '', #223 ) ;
#134 = ADVANCED_FACE ( 'NONE', ( #326 ), #81, .T. ) ;
#135 = DIRECTION ( 'NONE',  ( -0.8660254037844385966, -0.5000000000000001110, 0.000000000000000000 ) ) ;
#136 = DIRECTION ( 'NONE',  ( 1.000000000000000000, 3.479190826162944257E-16, 0.000000000000000000 ) ) ;
#137 = DIRECTION ( 'NONE',  ( -1.000000000000000000, 0.000000000000000000, 0.000000000000000000 ) ) ;
#138 = DIRECTION ( 'NONE',  ( -0.5000000000000000000, -0.8660254037844385966, 0.000000000000000000 ) ) ;
#139 = AXIS2_PLACEMENT_3D ( 'NONE', #284, #256, #228 ) ;
#140 = EDGE_CURVE ( 'NONE', #12, #206, #104, .T. ) ;
#141 = DIRECTION ( 'NONE',  ( 0.5000000000000002220, -0.8660254037844384856, 0.000000000000000000 ) ) ;
#142 = CARTESIAN_POINT ( 'NONE',  ( -0.1472243186433546402, 0.2550000000000000600, 0.1250000000000000000 ) ) ;
#143 = LINE ( 'NONE', #331, #3 ) ;
#144 = DIRECTION ( 'NONE',  ( -1.000000000000000000, 0.000000000000000000, 0.000000000000000000 ) ) ;
#145 = ORIENTED_EDGE ( 'NONE', *, *, #233, .T. ) ;
#146 = CIRCLE ( 'NONE', #339, 0.3838582677165354173 ) ;
#147 = CARTESIAN_POINT ( 'NONE',  ( -0.1472243186433544737, -0.2550000000000001710, 0.1250000000000000000 ) ) ;
#148 =( NAMED_UNIT ( * ) PLANE_ANGLE_UNIT ( ) SI_UNIT ( $, .RADIAN. ) );
#149 = CARTESIAN_POINT ( 'NONE',  ( 0.000000000000000000, 0.000000000000000000, 0.1250000000000000000 ) ) ;
#150 = CARTESIAN_POINT ( 'NONE',  ( -0.2944486372867092250, 0.000000000000000000, 0.1250000000000000000 ) ) ;
#151 = EDGE_LOOP ( 'NONE', ( #241, #118, #102, #298 ) ) ;
#152 = VECTOR ( 'NONE', #111, 39.37007874015748854 ) ;
#153 = ORIENTED_EDGE ( 'NONE', *, *, #296, .T. ) ;
#154 = ORIENTED_EDGE ( 'NONE', *, *, #14, .F. ) ;
#155 = DIRECTION ( 'NONE',  ( 0.000000000000000000, 0.000000000000000000, 1.000000000000000000 ) ) ;
#156 = EDGE_CURVE ( 'NONE', #185, #126, #132, .T. ) ;
#157 = STYLED_ITEM ( 'NONE', ( #179 ), #21 ) ;
#158 = ORIENTED_EDGE ( 'NONE', *, *, #101, .T. ) ;
#159 = ORIENTED_EDGE ( 'NONE', *, *, #140, .T. ) ;
#160 = EDGE_CURVE ( 'NONE', #210, #125, #2, .T. ) ;
#161 =( GEOMETRIC_REPRESENTATION_CONTEXT ( 3 ) GLOBAL_UNCERTAINTY_ASSIGNED_CONTEXT ( ( #273 ) ) GLOBAL_UNIT_ASSIGNED_CONTEXT ( ( #53, #251, #116 ) ) REPRESENTATION_CONTEXT ( 'NONE', 'WORKASPACE' ) );
#162 = SURFACE_STYLE_USAGE ( .BOTH. , #269 ) ;
#163 = LINE ( 'NONE', #142, #344 ) ;
#164 = LINE ( 'NONE', #79, #84 ) ;
#165 = EDGE_CURVE ( 'NONE', #285, #294, #82, .T. ) ;
#166 = CARTESIAN_POINT ( 'NONE',  ( 0.1472243186433546402, -0.2550000000000000600, 0.1250000000000000000 ) ) ;
#167 = DIRECTION ( 'NONE',  ( 1.000000000000000000, 3.479190826162944257E-16, 0.000000000000000000 ) ) ;
#168 = AXIS2_PLACEMENT_3D ( 'NONE', #6, #308, #280 ) ;
#169 = CARTESIAN_POINT ( 'NONE',  ( 0.2944486372867091695, 9.125506018658727786E-17, 0.1250000000000000000 ) ) ;
#170 = CARTESIAN_POINT ( 'NONE',  ( 0.1472243186433546402, -0.2550000000000000600, 0.1250000000000000000 ) ) ;
#171 = VERTEX_POINT ( 'NONE', #276 ) ;
#172 = DIRECTION ( 'NONE',  ( -1.000000000000000000, 0.000000000000000000, 0.000000000000000000 ) ) ;
#173 = PRODUCT ( 'WCP-0789 Rev1', 'WCP-0789 Rev1', '', ( #66 ) ) ;
#174 = EDGE_LOOP ( 'NONE', ( #159, #68, #180, #123, #153, #342 ) ) ;
#175 = CIRCLE ( 'NONE', #139, 0.3838582677165354173 ) ;
#176 = CARTESIAN_POINT ( 'NONE',  ( -0.1472243186433546402, 0.2550000000000000600, 0.1250000000000000000 ) ) ;
#177 = CYLINDRICAL_SURFACE ( 'NONE', #55, 0.3838582677165354173 ) ;
#178 = CARTESIAN_POINT ( 'NONE',  ( 0.1472243186433545847, 0.2550000000000000600, -0.1250000000000000000 ) ) ;
#179 = PRESENTATION_STYLE_ASSIGNMENT (( #237 ) ) ;
#180 = ORIENTED_EDGE ( 'NONE', *, *, #75, .T. ) ;
#181 =( NAMED_UNIT ( * ) SI_UNIT ( $, .STERADIAN. ) SOLID_ANGLE_UNIT ( ) );
#182 = VECTOR ( 'NONE', #58, 39.37007874015748143 ) ;
#183 = ORIENTED_EDGE ( 'NONE', *, *, #122, .T. ) ;
#184 = ADVANCED_FACE ( 'NONE', ( #7 ), #83, .T. ) ;
#185 = VERTEX_POINT ( 'NONE', #335 ) ;
#186 = EDGE_LOOP ( 'NONE', ( #346, #255 ) ) ;
#187 = MECHANICAL_DESIGN_GEOMETRIC_PRESENTATION_REPRESENTATION (  '', ( #322 ), #236 ) ;
#188 = DIRECTION ( 'NONE',  ( -0.000000000000000000, -0.000000000000000000, -1.000000000000000000 ) ) ;
#189 = UNCERTAINTY_MEASURE_WITH_UNIT (LENGTH_MEASURE( 1.000000000000000082E-05 ), #283, 'distance_accuracy_value', 'NONE');
#190 = ADVANCED_FACE ( 'NONE', ( #11 ), #226, .T. ) ;
#191 = CARTESIAN_POINT ( 'NONE',  ( 0.3838582677165354173, 4.700907988853029121E-17, -0.1250000000000000000 ) ) ;
#192 = CIRCLE ( 'NONE', #168, 0.3838582677165354173 ) ;
#193 = CARTESIAN_POINT ( 'NONE',  ( -0.1472243186433546402, 0.2550000000000000600, 0.1250000000000000000 ) ) ;
#194 = CARTESIAN_POINT ( 'NONE',  ( -0.1472243186433544737, -0.2550000000000001710, -0.1250000000000000000 ) ) ;
#195 = EDGE_CURVE ( 'NONE', #244, #130, #87, .T. ) ;
#196 = FILL_AREA_STYLE ('',( #133 ) ) ;
#197 = PLANE ( 'NONE',  #265 ) ;
#198 = AXIS2_PLACEMENT_3D ( 'NONE', #310, #338, #65 ) ;
#199 = DIMENSIONAL_EXPONENTS ( 1.000000000000000000, 0.000000000000000000, 0.000000000000000000, 0.000000000000000000, 0.000000000000000000, 0.000000000000000000, 0.000000000000000000 ) ;
#200 = CARTESIAN_POINT ( 'NONE',  ( 0.1472243186433545847, 0.2550000000000000600, 0.1250000000000000000 ) ) ;
#201 = CARTESIAN_POINT ( 'NONE',  ( -0.3838582677165354173, 0.000000000000000000, 0.1250000000000000000 ) ) ;
#202 = ORIENTED_EDGE ( 'NONE', *, *, #165, .F. ) ;
#203 = DIRECTION ( 'NONE',  ( -1.000000000000000000, -3.479190826162944257E-16, 0.000000000000000000 ) ) ;
#204 = AXIS2_PLACEMENT_3D ( 'NONE', #124, #240, #292 ) ;
#205 = DIRECTION ( 'NONE',  ( -3.479190826162944257E-16, 1.000000000000000000, 0.000000000000000000 ) ) ;
#206 = VERTEX_POINT ( 'NONE', #9 ) ;
#207 = APPLICATION_PROTOCOL_DEFINITION ( 'draft international standard', 'automotive_design', 1998, #94 ) ;
#208 = PRODUCT_DEFINITION_SHAPE ( 'NONE', 'NONE',  #20 ) ;
#209 = ORIENTED_EDGE ( 'NONE', *, *, #334, .F. ) ;
#210 = VERTEX_POINT ( 'NONE', #169 ) ;
#211 = MECHANICAL_DESIGN_GEOMETRIC_PRESENTATION_REPRESENTATION (  '', ( #157 ), #243 ) ;
#212 = EDGE_CURVE ( 'NONE', #126, #185, #175, .T. ) ;
#213 = ORIENTED_EDGE ( 'NONE', *, *, #267, .T. ) ;
#214 = ORIENTED_EDGE ( 'NONE', *, *, #233, .F. ) ;
#215 = DIRECTION ( 'NONE',  ( 0.4999999999999997224, 0.8660254037844388186, 0.000000000000000000 ) ) ;
#216 = EDGE_CURVE ( 'NONE', #47, #266, #192, .T. ) ;
#217 = AXIS2_PLACEMENT_3D ( 'NONE', #278, #91, #277 ) ;
#218 = AXIS2_PLACEMENT_3D ( 'NONE', #166, #225, #41 ) ;
#219 = PLANE ( 'NONE',  #15 ) ;
#220 = PRESENTATION_STYLE_ASSIGNMENT (( #162 ) ) ;
#221 = DIRECTION ( 'NONE',  ( 0.000000000000000000, 0.000000000000000000, 1.000000000000000000 ) ) ;
#222 = ADVANCED_FACE ( 'NONE', ( #254, #113 ), #114, .F. ) ;
#223 = COLOUR_RGB ( '',0.8666666666666666963, 0.9098039215686274384, 1.000000000000000000 ) ;
#224 = CARTESIAN_POINT ( 'NONE',  ( -0.2944486372867092250, 0.000000000000000000, -0.1250000000000000000 ) ) ;
#225 = DIRECTION ( 'NONE',  ( -0.8660254037844388186, 0.4999999999999997224, 0.000000000000000000 ) ) ;
#226 = CYLINDRICAL_SURFACE ( 'NONE', #325, 0.3838582677165354173 ) ;
#227 = EDGE_CURVE ( 'NONE', #206, #320, #313, .T. ) ;
#228 = DIRECTION ( 'NONE',  ( 1.000000000000000000, 0.000000000000000000, 0.000000000000000000 ) ) ;
#229 = VECTOR ( 'NONE', #302, 39.37007874015748143 ) ;
#230 = CARTESIAN_POINT ( 'NONE',  ( -0.1472243186433546402, 0.2550000000000000600, -0.1250000000000000000 ) ) ;
#231 = FACE_BOUND ( 'NONE', #341, .T. ) ;
#232 = ORIENTED_EDGE ( 'NONE', *, *, #227, .F. ) ;
#233 = EDGE_CURVE ( 'NONE', #47, #126, #143, .T. ) ;
#234 = DIRECTION ( 'NONE',  ( -0.000000000000000000, -0.000000000000000000, -1.000000000000000000 ) ) ;
#235 = ORIENTED_EDGE ( 'NONE', *, *, #69, .F. ) ;
#236 =( GEOMETRIC_REPRESENTATION_CONTEXT ( 3 ) GLOBAL_UNCERTAINTY_ASSIGNED_CONTEXT ( ( #52 ) ) GLOBAL_UNIT_ASSIGNED_CONTEXT ( ( #50, #51, #271 ) ) REPRESENTATION_CONTEXT ( 'NONE', 'WORKASPACE' ) );
#237 = SURFACE_STYLE_USAGE ( .BOTH. , #38 ) ;
#238 = DIRECTION ( 'NONE',  ( 0.5000000000000000000, 0.8660254037844385966, 0.000000000000000000 ) ) ;
#239 = ORIENTED_EDGE ( 'NONE', *, *, #69, .T. ) ;
#240 = DIRECTION ( 'NONE',  ( 0.000000000000000000, 0.000000000000000000, 1.000000000000000000 ) ) ;
#241 = ORIENTED_EDGE ( 'NONE', *, *, #106, .F. ) ;
#242 = ORIENTED_EDGE ( 'NONE', *, *, #101, .F. ) ;
#243 =( GEOMETRIC_REPRESENTATION_CONTEXT ( 3 ) GLOBAL_UNCERTAINTY_ASSIGNED_CONTEXT ( ( #189 ) ) GLOBAL_UNIT_ASSIGNED_CONTEXT ( ( #283, #148, #181 ) ) REPRESENTATION_CONTEXT ( 'NONE', 'WORKASPACE' ) );
#244 = VERTEX_POINT ( 'NONE', #85 ) ;
#245 = ORIENTED_EDGE ( 'NONE', *, *, #78, .T. ) ;
#246 = DIRECTION ( 'NONE',  ( -0.5000000000000001110, 0.8660254037844385966, 0.000000000000000000 ) ) ;
#247 = VECTOR ( 'NONE', #138, 39.37007874015748854 ) ;
#248 = FACE_OUTER_BOUND ( 'NONE', #151, .T. ) ;
#249 = CARTESIAN_POINT ( 'NONE',  ( 0.000000000000000000, 0.000000000000000000, -0.1250000000000000000 ) ) ;
#250 = DIRECTION ( 'NONE',  ( 1.000000000000000000, 0.000000000000000000, 0.000000000000000000 ) ) ;
#251 =( NAMED_UNIT ( * ) PLANE_ANGLE_UNIT ( ) SI_UNIT ( $, .RADIAN. ) );
#252 = LINE ( 'NONE', #306, #182 ) ;
#253 = DIRECTION ( 'NONE',  ( -0.000000000000000000, -0.000000000000000000, -1.000000000000000000 ) ) ;
#254 = FACE_OUTER_BOUND ( 'NONE', #72, .T. ) ;
#255 = ORIENTED_EDGE ( 'NONE', *, *, #216, .T. ) ;
#256 = DIRECTION ( 'NONE',  ( 0.000000000000000000, 0.000000000000000000, 1.000000000000000000 ) ) ;
#257 = DIRECTION ( 'NONE',  ( -0.5000000000000000000, -0.8660254037844385966, 0.000000000000000000 ) ) ;
#258 = FACE_OUTER_BOUND ( 'NONE', #40, .T. ) ;
#259 = CARTESIAN_POINT ( 'NONE',  ( -0.1472243186433546402, 0.2550000000000000600, 0.1250000000000000000 ) ) ;
#260 = ORIENTED_EDGE ( 'NONE', *, *, #290, .F. ) ;
#261 = VECTOR ( 'NONE', #246, 39.37007874015748143 ) ;
#262 = CARTESIAN_POINT ( 'NONE',  ( 0.3838582677165354173, 4.700907988853029121E-17, 0.1250000000000000000 ) ) ;
#263 = ORIENTED_EDGE ( 'NONE', *, *, #156, .F. ) ;
#264 = CARTESIAN_POINT ( 'NONE',  ( 0.1472243186433546402, -0.2550000000000000600, 0.1250000000000000000 ) ) ;
#265 = AXIS2_PLACEMENT_3D ( 'NONE', #200, #36, #37 ) ;
#266 = VERTEX_POINT ( 'NONE', #201 ) ;
#267 = EDGE_CURVE ( 'NONE', #294, #206, #88, .T. ) ;
#268 = LINE ( 'NONE', #25, #261 ) ;
#269 = SURFACE_SIDE_STYLE ('',( #107 ) ) ;
#270 = VECTOR ( 'NONE', #253, 39.37007874015748143 ) ;
#271 =( NAMED_UNIT ( * ) SI_UNIT ( $, .STERADIAN. ) SOLID_ANGLE_UNIT ( ) );
#272 = CARTESIAN_POINT ( 'NONE',  ( 0.2944486372867091695, 9.125506018658727786E-17, 0.1250000000000000000 ) ) ;
#273 = UNCERTAINTY_MEASURE_WITH_UNIT (LENGTH_MEASURE( 1.000000000000000082E-05 ), #53, 'distance_accuracy_value', 'NONE');
#274 = ADVANCED_FACE ( 'NONE', ( #117 ), #197, .T. ) ;
#275 = AXIS2_PLACEMENT_3D ( 'NONE', #28, #135, #1 ) ;
#276 = CARTESIAN_POINT ( 'NONE',  ( -0.2944486372867092805, 0.000000000000000000, 0.1250000000000000000 ) ) ;
#277 = DIRECTION ( 'NONE',  ( 1.000000000000000000, 0.000000000000000000, -0.000000000000000000 ) ) ;
#278 = CARTESIAN_POINT ( 'NONE',  ( 0.000000000000000000, 0.000000000000000000, -0.1250000000000000000 ) ) ;
#279 = ORIENTED_EDGE ( 'NONE', *, *, #165, .T. ) ;
#280 = DIRECTION ( 'NONE',  ( 1.000000000000000000, 0.000000000000000000, 0.000000000000000000 ) ) ;
#281 = VECTOR ( 'NONE', #315, 39.37007874015748143 ) ;
#282 = EDGE_CURVE ( 'NONE', #125, #316, #307, .T. ) ;
#283 =( CONVERSION_BASED_UNIT ( 'INCH', #93 ) LENGTH_UNIT ( ) NAMED_UNIT ( #86 ) );
#284 = CARTESIAN_POINT ( 'NONE',  ( 0.000000000000000000, 0.000000000000000000, -0.1250000000000000000 ) ) ;
#285 = VERTEX_POINT ( 'NONE', #147 ) ;
#286 = CARTESIAN_POINT ( 'NONE',  ( -0.1472243186433544737, -0.2550000000000001710, 0.1250000000000000000 ) ) ;
#287 = FACE_OUTER_BOUND ( 'NONE', #73, .T. ) ;
#288 = ORIENTED_EDGE ( 'NONE', *, *, #160, .T. ) ;
#289 = FACE_OUTER_BOUND ( 'NONE', #62, .T. ) ;
#290 = EDGE_CURVE ( 'NONE', #266, #185, #252, .T. ) ;
#291 = CARTESIAN_POINT ( 'NONE',  ( 0.000000000000000000, 0.000000000000000000, 0.1250000000000000000 ) ) ;
#292 = DIRECTION ( 'NONE',  ( 1.000000000000000000, 0.000000000000000000, 0.000000000000000000 ) ) ;
#293 = ORIENTED_EDGE ( 'NONE', *, *, #282, .F. ) ;
#294 = VERTEX_POINT ( 'NONE', #170 ) ;
#295 = ORIENTED_EDGE ( 'NONE', *, *, #290, .T. ) ;
#296 = EDGE_CURVE ( 'NONE', #130, #92, #34, .T. ) ;
#297 = PRESENTATION_LAYER_ASSIGNMENT (  '', '', ( #322 ) ) ;
#298 = ORIENTED_EDGE ( 'NONE', *, *, #334, .T. ) ;
#299 = LINE ( 'NONE', #350, #305 ) ;
#300 = VECTOR ( 'NONE', #172, 39.37007874015748143 ) ;
#301 = DIRECTION ( 'NONE',  ( 0.8660254037844385966, 0.5000000000000003331, -0.000000000000000000 ) ) ;
#302 = DIRECTION ( 'NONE',  ( -0.000000000000000000, -0.000000000000000000, -1.000000000000000000 ) ) ;
#303 = DIRECTION ( 'NONE',  ( -0.000000000000000000, -0.000000000000000000, -1.000000000000000000 ) ) ;
#304 = PRODUCT_RELATED_PRODUCT_CATEGORY ( 'part', '', ( #173 ) ) ;
#305 = VECTOR ( 'NONE', #324, 39.37007874015748854 ) ;
#306 = CARTESIAN_POINT ( 'NONE',  ( -0.3838582677165354173, 0.000000000000000000, 0.1250000000000000000 ) ) ;
#307 = LINE ( 'NONE', #61, #300 ) ;
#308 = DIRECTION ( 'NONE',  ( 0.000000000000000000, 0.000000000000000000, 1.000000000000000000 ) ) ;
#309 = ORIENTED_EDGE ( 'NONE', *, *, #140, .F. ) ;
#310 = CARTESIAN_POINT ( 'NONE',  ( 0.000000000000000000, 0.000000000000000000, 0.1250000000000000000 ) ) ;
#311 = COLOUR_RGB ( '',0.8666666666666666963, 0.9098039215686274384, 1.000000000000000000 ) ;
#312 = APPLICATION_PROTOCOL_DEFINITION ( 'draft international standard', 'automotive_design', 1998, #351 ) ;
#313 = LINE ( 'NONE', #33, #152 ) ;
#314 = ADVANCED_FACE ( 'NONE', ( #67, #231 ), #336, .T. ) ;
#315 = DIRECTION ( 'NONE',  ( -0.000000000000000000, -0.000000000000000000, -1.000000000000000000 ) ) ;
#316 = VERTEX_POINT ( 'NONE', #176 ) ;
#317 = ORIENTED_EDGE ( 'NONE', *, *, #56, .T. ) ;
#318 = CARTESIAN_POINT ( 'NONE',  ( -0.1472243186433545015, -0.2550000000000001710, -0.1250000000000000000 ) ) ;
#319 = ADVANCED_FACE ( 'NONE', ( #287 ), #39, .T. ) ;
#320 = VERTEX_POINT ( 'NONE', #16 ) ;
#321 = CARTESIAN_POINT ( 'NONE',  ( 0.2944486372867091695, 9.125506018658727786E-17, 0.1250000000000000000 ) ) ;
#322 = STYLED_ITEM ( 'NONE', ( #220 ), #129 ) ;
#323 = DIRECTION ( 'NONE',  ( -0.5000000000000002220, 0.8660254037844384856, 0.000000000000000000 ) ) ;
#324 = DIRECTION ( 'NONE',  ( 0.5000000000000002220, -0.8660254037844384856, 0.000000000000000000 ) ) ;
#325 = AXIS2_PLACEMENT_3D ( 'NONE', #149, #60, #112 ) ;
#326 = FACE_OUTER_BOUND ( 'NONE', #347, .T. ) ;
#327 = CARTESIAN_POINT ( 'NONE',  ( 0.000000000000000000, 0.000000000000000000, 0.1250000000000000000 ) ) ;
#328 = DIRECTION ( 'NONE',  ( -0.5000000000000001110, 0.8660254037844385966, 0.000000000000000000 ) ) ;
#329 = EDGE_CURVE ( 'NONE', #171, #285, #340, .T. ) ;
#330 = FILL_AREA_STYLE ('',( #13 ) ) ;
#331 = CARTESIAN_POINT ( 'NONE',  ( 0.3838582677165354173, 4.700907988853029121E-17, 0.1250000000000000000 ) ) ;
#332 = AXIS2_PLACEMENT_3D ( 'NONE', #249, #221, #250 ) ;
#333 = CARTESIAN_POINT ( 'NONE',  ( -0.1472243186433544737, -0.2550000000000001710, 0.1250000000000000000 ) ) ;
#334 = EDGE_CURVE ( 'NONE', #285, #12, #57, .T. ) ;
#335 = CARTESIAN_POINT ( 'NONE',  ( -0.3838582677165354173, 0.000000000000000000, -0.1250000000000000000 ) ) ;
#336 = PLANE ( 'NONE',  #198 ) ;
#337 = LENGTH_MEASURE_WITH_UNIT ( LENGTH_MEASURE( 0.02539999999999999897 ), #5 );
#338 = DIRECTION ( 'NONE',  ( 0.000000000000000000, 0.000000000000000000, 1.000000000000000000 ) ) ;
#339 = AXIS2_PLACEMENT_3D ( 'NONE', #291, #155, #127 ) ;
#340 = LINE ( 'NONE', #150, #108 ) ;
#341 = EDGE_LOOP ( 'NONE', ( #49, #202, #115, #95, #293, #10 ) ) ;
#342 = ORIENTED_EDGE ( 'NONE', *, *, #106, .T. ) ;
#343 = ORIENTED_EDGE ( 'NONE', *, *, #216, .F. ) ;
#344 = VECTOR ( 'NONE', #30, 39.37007874015748143 ) ;
#345 = ADVANCED_FACE ( 'NONE', ( #258 ), #109, .T. ) ;
#346 = ORIENTED_EDGE ( 'NONE', *, *, #14, .T. ) ;
#347 = EDGE_LOOP ( 'NONE', ( #59, #235, #288, #245 ) ) ;
#348 = LINE ( 'NONE', #193, #247 ) ;
#349 = ADVANCED_FACE ( 'NONE', ( #289 ), #177, .T. ) ;
#350 = CARTESIAN_POINT ( 'NONE',  ( -0.2944486372867092250, 0.000000000000000000, -0.1250000000000000000 ) ) ;
#351 = APPLICATION_CONTEXT ( 'automotive_design' ) ;
ENDSEC;
END-ISO-10303-21;
