ISO-10303-21;
HEADER;
FILE_DESCRIPTION (( 'STEP AP214' ),
    '1' );
FILE_NAME ('WCP-0788 Rev1.step',
    '2022-11-29T01:34:18',
    ( '' ),
    ( '' ),
    'SwSTEP 2.0',
    'SolidWorks 2020',
    '' );
FILE_SCHEMA (( 'AUTOMOTIVE_DESIGN' ));
ENDSEC;

DATA;
#1 = APPLICATION_CONTEXT ( 'automotive_design' ) ;
#2 = EDGE_CURVE ( 'NONE', #11, #289, #90, .T. ) ;
#3 =( LENGTH_UNIT ( ) NAMED_UNIT ( * ) SI_UNIT ( $, .METRE. ) );
#4 = CARTESIAN_POINT ( 'NONE',  ( 0.000000000000000000, 0.000000000000000000, -0.06250000000000000000 ) ) ;
#5 = STYLED_ITEM ( 'NONE', ( #199 ), #63 ) ;
#6 = DIRECTION ( 'NONE',  ( 1.000000000000000000, 0.000000000000000000, 0.000000000000000000 ) ) ;
#7 = LINE ( 'NONE', #220, #317 ) ;
#8 = CARTESIAN_POINT ( 'NONE',  ( -0.2944486372867092250, 0.000000000000000000, 0.06250000000000000000 ) ) ;
#9 = EDGE_CURVE ( 'NONE', #215, #11, #121, .T. ) ;
#10 = VECTOR ( 'NONE', #116, 39.37007874015748143 ) ;
#11 = VERTEX_POINT ( 'NONE', #311 ) ;
#12 = ORIENTED_EDGE ( 'NONE', *, *, #113, .F. ) ;
#13 = ORIENTED_EDGE ( 'NONE', *, *, #21, .T. ) ;
#14 = CLOSED_SHELL ( 'NONE', ( #61, #319, #190, #192, #331, #278, #263, #348, #251, #74 ) ) ;
#15 = ORIENTED_EDGE ( 'NONE', *, *, #163, .T. ) ;
#16 = ORIENTED_EDGE ( 'NONE', *, *, #102, .T. ) ;
#17 = FACE_OUTER_BOUND ( 'NONE', #41, .T. ) ;
#18 = LENGTH_MEASURE_WITH_UNIT ( LENGTH_MEASURE( 0.02539999999999999897 ), #349 );
#19 = AXIS2_PLACEMENT_3D ( 'NONE', #65, #39, #93 ) ;
#20 = CARTESIAN_POINT ( 'NONE',  ( 0.000000000000000000, 0.000000000000000000, -0.06250000000000000000 ) ) ;
#21 = EDGE_CURVE ( 'NONE', #28, #170, #70, .T. ) ;
#22 = CARTESIAN_POINT ( 'NONE',  ( 0.3838582677165354173, 4.700907988853029121E-17, 0.06250000000000000000 ) ) ;
#23 = DIRECTION ( 'NONE',  ( 0.000000000000000000, -0.000000000000000000, -1.000000000000000000 ) ) ;
#24 = CARTESIAN_POINT ( 'NONE',  ( 0.000000000000000000, 0.000000000000000000, 0.06250000000000000000 ) ) ;
#25 = VECTOR ( 'NONE', #288, 39.37007874015748143 ) ;
#26 = CARTESIAN_POINT ( 'NONE',  ( -0.1472243186433546402, 0.2550000000000000600, 0.06250000000000000000 ) ) ;
#27 = DIRECTION ( 'NONE',  ( -0.000000000000000000, -0.000000000000000000, -1.000000000000000000 ) ) ;
#28 = VERTEX_POINT ( 'NONE', #339 ) ;
#29 = LENGTH_MEASURE_WITH_UNIT ( LENGTH_MEASURE( 0.02539999999999999897 ), #145 );
#30 = DIRECTION ( 'NONE',  ( 1.000000000000000000, 0.000000000000000000, -0.000000000000000000 ) ) ;
#31 = VECTOR ( 'NONE', #195, 39.37007874015748143 ) ;
#32 = CARTESIAN_POINT ( 'NONE',  ( 0.000000000000000000, 0.000000000000000000, 0.06250000000000000000 ) ) ;
#33 = ORIENTED_EDGE ( 'NONE', *, *, #113, .T. ) ;
#34 = EDGE_CURVE ( 'NONE', #310, #336, #152, .T. ) ;
#35 = LINE ( 'NONE', #87, #10 ) ;
#36 = ORIENTED_EDGE ( 'NONE', *, *, #154, .T. ) ;
#37 = DIRECTION ( 'NONE',  ( -1.000000000000000000, -3.479190826162944257E-16, 0.000000000000000000 ) ) ;
#38 = VECTOR ( 'NONE', #239, 39.37007874015748854 ) ;
#39 = DIRECTION ( 'NONE',  ( 0.000000000000000000, 0.000000000000000000, 1.000000000000000000 ) ) ;
#40 = EDGE_LOOP ( 'NONE', ( #313, #81, #210, #15 ) ) ;
#41 = EDGE_LOOP ( 'NONE', ( #231, #67, #13, #183 ) ) ;
#42 = AXIS2_PLACEMENT_3D ( 'NONE', #114, #85, #300 ) ;
#43 = EDGE_LOOP ( 'NONE', ( #284, #12, #176, #208, #44, #153 ) ) ;
#44 = ORIENTED_EDGE ( 'NONE', *, *, #202, .F. ) ;
#45 = EDGE_CURVE ( 'NONE', #11, #118, #287, .T. ) ;
#46 = LINE ( 'NONE', #296, #31 ) ;
#47 = CARTESIAN_POINT ( 'NONE',  ( 0.1472243186433545847, 0.2550000000000000600, -0.06250000000000000000 ) ) ;
#48 = EDGE_CURVE ( 'NONE', #91, #305, #161, .T. ) ;
#49 = DIRECTION ( 'NONE',  ( -0.000000000000000000, -0.000000000000000000, -1.000000000000000000 ) ) ;
#50 = UNCERTAINTY_MEASURE_WITH_UNIT (LENGTH_MEASURE( 1.000000000000000082E-05 ), #130, 'distance_accuracy_value', 'NONE');
#51 =( NAMED_UNIT ( * ) PLANE_ANGLE_UNIT ( ) SI_UNIT ( $, .RADIAN. ) );
#52 = SURFACE_STYLE_FILL_AREA ( #105 ) ;
#53 = CARTESIAN_POINT ( 'NONE',  ( -0.2944486372867092250, 0.000000000000000000, 0.06250000000000000000 ) ) ;
#54 = PRESENTATION_LAYER_ASSIGNMENT (  '', '', ( #5 ) ) ;
#55 = LINE ( 'NONE', #142, #326 ) ;
#56 = DIRECTION ( 'NONE',  ( -0.000000000000000000, -0.000000000000000000, -1.000000000000000000 ) ) ;
#57 = PLANE ( 'NONE',  #285 ) ;
#58 = FACE_BOUND ( 'NONE', #237, .T. ) ;
#59 = ORIENTED_EDGE ( 'NONE', *, *, #283, .T. ) ;
#60 = AXIS2_PLACEMENT_3D ( 'NONE', #281, #27, #227 ) ;
#61 = ADVANCED_FACE ( 'NONE', ( #17 ), #323, .T. ) ;
#62 = PLANE ( 'NONE',  #236 ) ;
#63 = ADVANCED_BREP_SHAPE_REPRESENTATION ( 'WCP-0788 Rev1', ( #103, #322 ), #211 ) ;
#64 = CARTESIAN_POINT ( 'NONE',  ( -0.2944486372867092250, 0.000000000000000000, -0.06250000000000000000 ) ) ;
#65 = CARTESIAN_POINT ( 'NONE',  ( 0.000000000000000000, 0.000000000000000000, -0.06250000000000000000 ) ) ;
#66 = MECHANICAL_DESIGN_GEOMETRIC_PRESENTATION_REPRESENTATION (  '', ( #144 ), #270 ) ;
#67 = ORIENTED_EDGE ( 'NONE', *, *, #120, .T. ) ;
#68 = EDGE_LOOP ( 'NONE', ( #291, #140, #16, #36 ) ) ;
#69 = ORIENTED_EDGE ( 'NONE', *, *, #202, .T. ) ;
#70 = CIRCLE ( 'NONE', #19, 0.3838582677165354173 ) ;
#71 = ORIENTED_EDGE ( 'NONE', *, *, #314, .T. ) ;
#72 = LINE ( 'NONE', #292, #298 ) ;
#73 = CARTESIAN_POINT ( 'NONE',  ( 0.000000000000000000, 0.000000000000000000, 0.06250000000000000000 ) ) ;
#74 = ADVANCED_FACE ( 'NONE', ( #135 ), #101, .T. ) ;
#75 = PRESENTATION_STYLE_ASSIGNMENT (( #244 ) ) ;
#76 = AXIS2_PLACEMENT_3D ( 'NONE', #24, #342, #242 ) ;
#77 = DIRECTION ( 'NONE',  ( -0.000000000000000000, -0.000000000000000000, -1.000000000000000000 ) ) ;
#78 =( NAMED_UNIT ( * ) PLANE_ANGLE_UNIT ( ) SI_UNIT ( $, .RADIAN. ) );
#79 = CARTESIAN_POINT ( 'NONE',  ( 0.2944486372867091695, 9.125506018658727786E-17, -0.06250000000000000000 ) ) ;
#80 = EDGE_CURVE ( 'NONE', #261, #91, #46, .T. ) ;
#81 = ORIENTED_EDGE ( 'NONE', *, *, #2, .F. ) ;
#82 = AXIS2_PLACEMENT_3D ( 'NONE', #333, #207, #309 ) ;
#83 = CARTESIAN_POINT ( 'NONE',  ( 0.1472243186433546402, -0.2550000000000000600, -0.06250000000000000000 ) ) ;
#84 = ORIENTED_EDGE ( 'NONE', *, *, #95, .F. ) ;
#85 = DIRECTION ( 'NONE',  ( -0.8660254037844385966, -0.5000000000000001110, 0.000000000000000000 ) ) ;
#86 = SURFACE_STYLE_USAGE ( .BOTH. , #268 ) ;
#87 = CARTESIAN_POINT ( 'NONE',  ( 0.1472243186433545847, 0.2550000000000000600, 0.06250000000000000000 ) ) ;
#88 = VECTOR ( 'NONE', #318, 39.37007874015748143 ) ;
#89 = DIRECTION ( 'NONE',  ( 0.000000000000000000, 0.000000000000000000, 1.000000000000000000 ) ) ;
#90 = LINE ( 'NONE', #286, #187 ) ;
#91 = VERTEX_POINT ( 'NONE', #128 ) ;
#92 = AXIS2_PLACEMENT_3D ( 'NONE', #53, #193, #189 ) ;
#93 = DIRECTION ( 'NONE',  ( 1.000000000000000000, 0.000000000000000000, 0.000000000000000000 ) ) ;
#94 = ORIENTED_EDGE ( 'NONE', *, *, #95, .T. ) ;
#95 = EDGE_CURVE ( 'NONE', #127, #91, #264, .T. ) ;
#96 = EDGE_CURVE ( 'NONE', #261, #260, #269, .T. ) ;
#97 = ORIENTED_EDGE ( 'NONE', *, *, #228, .T. ) ;
#98 = CARTESIAN_POINT ( 'NONE',  ( 0.1472243186433545847, 0.2550000000000000600, -0.06250000000000000000 ) ) ;
#99 = UNCERTAINTY_MEASURE_WITH_UNIT (LENGTH_MEASURE( 1.000000000000000082E-05 ), #164, 'distance_accuracy_value', 'NONE');
#100 = LINE ( 'NONE', #22, #88 ) ;
#101 = PLANE ( 'NONE',  #92 ) ;
#102 = EDGE_CURVE ( 'NONE', #186, #170, #265, .T. ) ;
#103 = MANIFOLD_SOLID_BREP ( 'Boss-Extrude1', #14 ) ;
#104 = VECTOR ( 'NONE', #111, 39.37007874015748854 ) ;
#105 = FILL_AREA_STYLE ('',( #346 ) ) ;
#106 = MECHANICAL_DESIGN_GEOMETRIC_PRESENTATION_REPRESENTATION (  '', ( #5 ), #212 ) ;
#107 = PLANE ( 'NONE',  #182 ) ;
#108 = LINE ( 'NONE', #8, #197 ) ;
#109 = ORIENTED_EDGE ( 'NONE', *, *, #293, .T. ) ;
#110 = DIRECTION ( 'NONE',  ( 0.000000000000000000, -1.000000000000000000, 0.000000000000000000 ) ) ;
#111 = DIRECTION ( 'NONE',  ( 0.5000000000000002220, -0.8660254037844384856, 0.000000000000000000 ) ) ;
#112 = ORIENTED_EDGE ( 'NONE', *, *, #154, .F. ) ;
#113 = EDGE_CURVE ( 'NONE', #310, #215, #72, .T. ) ;
#114 = CARTESIAN_POINT ( 'NONE',  ( 0.2944486372867091695, 9.125506018658727786E-17, 0.06250000000000000000 ) ) ;
#115 = CARTESIAN_POINT ( 'NONE',  ( 0.000000000000000000, 0.000000000000000000, 0.000000000000000000 ) ) ;
#116 = DIRECTION ( 'NONE',  ( -1.000000000000000000, 0.000000000000000000, 0.000000000000000000 ) ) ;
#117 = CARTESIAN_POINT ( 'NONE',  ( 0.000000000000000000, 0.000000000000000000, 0.06250000000000000000 ) ) ;
#118 = VERTEX_POINT ( 'NONE', #294 ) ;
#119 = ORIENTED_EDGE ( 'NONE', *, *, #163, .F. ) ;
#120 = EDGE_CURVE ( 'NONE', #335, #28, #100, .T. ) ;
#121 = LINE ( 'NONE', #209, #306 ) ;
#122 = CARTESIAN_POINT ( 'NONE',  ( 0.2944486372867091695, 9.125506018658727786E-17, 0.06250000000000000000 ) ) ;
#123 = COLOUR_RGB ( '',0.8666666666666666963, 0.9098039215686274384, 1.000000000000000000 ) ;
#124 = EDGE_CURVE ( 'NONE', #335, #186, #230, .T. ) ;
#125 = EDGE_LOOP ( 'NONE', ( #213, #280, #340, #255 ) ) ;
#126 = PRODUCT_RELATED_PRODUCT_CATEGORY ( 'part', '', ( #184 ) ) ;
#127 = VERTEX_POINT ( 'NONE', #47 ) ;
#128 = CARTESIAN_POINT ( 'NONE',  ( -0.1472243186433546402, 0.2550000000000000600, -0.06250000000000000000 ) ) ;
#129 = CIRCLE ( 'NONE', #277, 0.3838582677165354173 ) ;
#130 =( CONVERSION_BASED_UNIT ( 'INCH', #18 ) LENGTH_UNIT ( ) NAMED_UNIT ( #233 ) );
#131 = SURFACE_SIDE_STYLE ('',( #52 ) ) ;
#132 = DIRECTION ( 'NONE',  ( 0.000000000000000000, 0.000000000000000000, 1.000000000000000000 ) ) ;
#133 = DIRECTION ( 'NONE',  ( 0.5000000000000002220, -0.8660254037844384856, 0.000000000000000000 ) ) ;
#134 = VECTOR ( 'NONE', #133, 39.37007874015748854 ) ;
#135 = FACE_OUTER_BOUND ( 'NONE', #262, .T. ) ;
#136 =( NAMED_UNIT ( * ) PLANE_ANGLE_UNIT ( ) SI_UNIT ( $, .RADIAN. ) );
#137 = CARTESIAN_POINT ( 'NONE',  ( 0.1472243186433546402, -0.2550000000000000600, 0.06250000000000000000 ) ) ;
#138 = DIRECTION ( 'NONE',  ( 0.000000000000000000, 0.000000000000000000, 1.000000000000000000 ) ) ;
#139 = CARTESIAN_POINT ( 'NONE',  ( -0.3838582677165354173, 0.000000000000000000, -0.06250000000000000000 ) ) ;
#140 = ORIENTED_EDGE ( 'NONE', *, *, #228, .F. ) ;
#141 = EDGE_CURVE ( 'NONE', #215, #232, #345, .T. ) ;
#142 = CARTESIAN_POINT ( 'NONE',  ( -0.1472243186433544737, -0.2550000000000001710, -0.06250000000000000000 ) ) ;
#143 = FACE_OUTER_BOUND ( 'NONE', #188, .T. ) ;
#144 = STYLED_ITEM ( 'NONE', ( #75 ), #103 ) ;
#145 =( LENGTH_UNIT ( ) NAMED_UNIT ( * ) SI_UNIT ( $, .METRE. ) );
#146 = FACE_OUTER_BOUND ( 'NONE', #40, .T. ) ;
#147 = ORIENTED_EDGE ( 'NONE', *, *, #314, .F. ) ;
#148 = DIRECTION ( 'NONE',  ( 0.4999999999999997224, 0.8660254037844388186, 0.000000000000000000 ) ) ;
#149 = PRODUCT_DEFINITION_CONTEXT ( 'detailed design', #1, 'design' ) ;
#150 = PLANE ( 'NONE',  #290 ) ;
#151 = VECTOR ( 'NONE', #234, 39.37007874015748143 ) ;
#152 = LINE ( 'NONE', #259, #151 ) ;
#153 = ORIENTED_EDGE ( 'NONE', *, *, #45, .F. ) ;
#154 = EDGE_CURVE ( 'NONE', #170, #28, #129, .T. ) ;
#155 = DIRECTION ( 'NONE',  ( -0.000000000000000000, -0.000000000000000000, -1.000000000000000000 ) ) ;
#156 = ORIENTED_EDGE ( 'NONE', *, *, #34, .F. ) ;
#157 = ORIENTED_EDGE ( 'NONE', *, *, #334, .T. ) ;
#158 = DIRECTION ( 'NONE',  ( -0.5000000000000000000, -0.8660254037844385966, 0.000000000000000000 ) ) ;
#159 = AXIS2_PLACEMENT_3D ( 'NONE', #32, #89, #6 ) ;
#160 = CARTESIAN_POINT ( 'NONE',  ( 0.1472243186433546402, -0.2550000000000000600, 0.06250000000000000000 ) ) ;
#161 = LINE ( 'NONE', #162, #38 ) ;
#162 = CARTESIAN_POINT ( 'NONE',  ( -0.1472243186433546402, 0.2550000000000000600, -0.06250000000000000000 ) ) ;
#163 = EDGE_CURVE ( 'NONE', #118, #127, #7, .T. ) ;
#164 =( CONVERSION_BASED_UNIT ( 'INCH', #29 ) LENGTH_UNIT ( ) NAMED_UNIT ( #253 ) );
#165 = VECTOR ( 'NONE', #49, 39.37007874015748143 ) ;
#166 = DIRECTION ( 'NONE',  ( -0.000000000000000000, -0.000000000000000000, -1.000000000000000000 ) ) ;
#167 = PRODUCT_DEFINITION_FORMATION_WITH_SPECIFIED_SOURCE ( 'ANY', '', #184, .NOT_KNOWN. ) ;
#168 = DIRECTION ( 'NONE',  ( 1.000000000000000000, 3.479190826162944257E-16, 0.000000000000000000 ) ) ;
#169 = FACE_OUTER_BOUND ( 'NONE', #125, .T. ) ;
#170 = VERTEX_POINT ( 'NONE', #139 ) ;
#171 = APPLICATION_PROTOCOL_DEFINITION ( 'draft international standard', 'automotive_design', 1998, #308 ) ;
#172 = CARTESIAN_POINT ( 'NONE',  ( 0.2944486372867091695, 9.125506018658727786E-17, -0.06250000000000000000 ) ) ;
#173 =( CONVERSION_BASED_UNIT ( 'INCH', #324 ) LENGTH_UNIT ( ) NAMED_UNIT ( #258 ) );
#174 = LINE ( 'NONE', #226, #104 ) ;
#175 = VECTOR ( 'NONE', #158, 39.37007874015748854 ) ;
#176 = ORIENTED_EDGE ( 'NONE', *, *, #243, .F. ) ;
#177 = COLOUR_RGB ( '',0.8666666666666666963, 0.9098039215686274384, 1.000000000000000000 ) ;
#178 = DIRECTION ( 'NONE',  ( -0.4999999999999997224, -0.8660254037844388186, 0.000000000000000000 ) ) ;
#179 = DIRECTION ( 'NONE',  ( -3.479190826162944257E-16, 1.000000000000000000, 0.000000000000000000 ) ) ;
#180 = ORIENTED_EDGE ( 'NONE', *, *, #48, .F. ) ;
#181 = ORIENTED_EDGE ( 'NONE', *, *, #334, .F. ) ;
#182 = AXIS2_PLACEMENT_3D ( 'NONE', #302, #110, #23 ) ;
#183 = ORIENTED_EDGE ( 'NONE', *, *, #102, .F. ) ;
#184 = PRODUCT ( 'WCP-0788 Rev1', 'WCP-0788 Rev1', '', ( #297 ) ) ;
#185 = DIRECTION ( 'NONE',  ( 0.4999999999999997224, 0.8660254037844388186, 0.000000000000000000 ) ) ;
#186 = VERTEX_POINT ( 'NONE', #330 ) ;
#187 = VECTOR ( 'NONE', #155, 39.37007874015748143 ) ;
#188 = EDGE_LOOP ( 'NONE', ( #180, #337, #216, #71 ) ) ;
#189 = DIRECTION ( 'NONE',  ( -0.5000000000000002220, 0.8660254037844384856, 0.000000000000000000 ) ) ;
#190 = ADVANCED_FACE ( 'NONE', ( #247, #58 ), #273, .F. ) ;
#191 = DIRECTION ( 'NONE',  ( 1.000000000000000000, 0.000000000000000000, 0.000000000000000000 ) ) ;
#192 = ADVANCED_FACE ( 'NONE', ( #332 ), #223, .T. ) ;
#193 = DIRECTION ( 'NONE',  ( 0.8660254037844385966, 0.5000000000000003331, -0.000000000000000000 ) ) ;
#194 = DIRECTION ( 'NONE',  ( 1.000000000000000000, 0.000000000000000000, 0.000000000000000000 ) ) ;
#195 = DIRECTION ( 'NONE',  ( -0.000000000000000000, -0.000000000000000000, -1.000000000000000000 ) ) ;
#196 = APPLICATION_PROTOCOL_DEFINITION ( 'draft international standard', 'automotive_design', 1998, #1 ) ;
#197 = VECTOR ( 'NONE', #56, 39.37007874015748143 ) ;
#198 = CARTESIAN_POINT ( 'NONE',  ( -0.1472243186433544737, -0.2550000000000001710, 0.06250000000000000000 ) ) ;
#199 = PRESENTATION_STYLE_ASSIGNMENT (( #86 ) ) ;
#200 = FACE_OUTER_BOUND ( 'NONE', #250, .T. ) ;
#201 = ORIENTED_EDGE ( 'NONE', *, *, #21, .F. ) ;
#202 = EDGE_CURVE ( 'NONE', #118, #261, #35, .T. ) ;
#203 = DIRECTION ( 'NONE',  ( -0.8660254037844388186, 0.4999999999999997224, 0.000000000000000000 ) ) ;
#204 = CARTESIAN_POINT ( 'NONE',  ( 0.3838582677165354173, 4.700907988853029121E-17, 0.06250000000000000000 ) ) ;
#205 = PLANE ( 'NONE',  #42 ) ;
#206 = VECTOR ( 'NONE', #245, 39.37007874015748143 ) ;
#207 = DIRECTION ( 'NONE',  ( 0.8660254037844387076, -0.5000000000000001110, 0.000000000000000000 ) ) ;
#208 = ORIENTED_EDGE ( 'NONE', *, *, #96, .F. ) ;
#209 = CARTESIAN_POINT ( 'NONE',  ( 0.1472243186433546402, -0.2550000000000000600, 0.06250000000000000000 ) ) ;
#210 = ORIENTED_EDGE ( 'NONE', *, *, #45, .T. ) ;
#211 =( GEOMETRIC_REPRESENTATION_CONTEXT ( 3 ) GLOBAL_UNCERTAINTY_ASSIGNED_CONTEXT ( ( #338 ) ) GLOBAL_UNIT_ASSIGNED_CONTEXT ( ( #173, #51, #275 ) ) REPRESENTATION_CONTEXT ( 'NONE', 'WORKASPACE' ) );
#212 =( GEOMETRIC_REPRESENTATION_CONTEXT ( 3 ) GLOBAL_UNCERTAINTY_ASSIGNED_CONTEXT ( ( #99 ) ) GLOBAL_UNIT_ASSIGNED_CONTEXT ( ( #164, #136, #225 ) ) REPRESENTATION_CONTEXT ( 'NONE', 'WORKASPACE' ) );
#213 = ORIENTED_EDGE ( 'NONE', *, *, #293, .F. ) ;
#214 = PRODUCT_DEFINITION_SHAPE ( 'NONE', 'NONE',  #272 ) ;
#215 = VERTEX_POINT ( 'NONE', #271 ) ;
#216 = ORIENTED_EDGE ( 'NONE', *, *, #96, .T. ) ;
#217 =( NAMED_UNIT ( * ) SI_UNIT ( $, .STERADIAN. ) SOLID_ANGLE_UNIT ( ) );
#218 = CARTESIAN_POINT ( 'NONE',  ( -0.3838582677165354173, 0.000000000000000000, 0.06250000000000000000 ) ) ;
#219 = AXIS2_PLACEMENT_3D ( 'NONE', #4, #252, #307 ) ;
#220 = CARTESIAN_POINT ( 'NONE',  ( 0.1472243186433545847, 0.2550000000000000600, 0.06250000000000000000 ) ) ;
#221 = ORIENTED_EDGE ( 'NONE', *, *, #80, .T. ) ;
#222 = FILL_AREA_STYLE ('',( #248 ) ) ;
#223 = CYLINDRICAL_SURFACE ( 'NONE', #60, 0.3838582677165354173 ) ;
#224 = ORIENTED_EDGE ( 'NONE', *, *, #141, .T. ) ;
#225 =( NAMED_UNIT ( * ) SI_UNIT ( $, .STERADIAN. ) SOLID_ANGLE_UNIT ( ) );
#226 = CARTESIAN_POINT ( 'NONE',  ( -0.2944486372867092250, 0.000000000000000000, 0.06250000000000000000 ) ) ;
#227 = DIRECTION ( 'NONE',  ( -1.000000000000000000, 0.000000000000000000, 0.000000000000000000 ) ) ;
#228 = EDGE_CURVE ( 'NONE', #186, #335, #347, .T. ) ;
#229 = DIRECTION ( 'NONE',  ( 0.000000000000000000, 0.000000000000000000, 1.000000000000000000 ) ) ;
#230 = CIRCLE ( 'NONE', #240, 0.3838582677165354173 ) ;
#231 = ORIENTED_EDGE ( 'NONE', *, *, #124, .F. ) ;
#232 = VERTEX_POINT ( 'NONE', #249 ) ;
#233 = DIMENSIONAL_EXPONENTS ( 1.000000000000000000, 0.000000000000000000, 0.000000000000000000, 0.000000000000000000, 0.000000000000000000, 0.000000000000000000, 0.000000000000000000 ) ;
#234 = DIRECTION ( 'NONE',  ( -0.000000000000000000, -0.000000000000000000, -1.000000000000000000 ) ) ;
#235 = ORIENTED_EDGE ( 'NONE', *, *, #341, .F. ) ;
#236 = AXIS2_PLACEMENT_3D ( 'NONE', #137, #203, #178 ) ;
#237 = EDGE_LOOP ( 'NONE', ( #316, #109, #59, #94, #238, #157 ) ) ;
#238 = ORIENTED_EDGE ( 'NONE', *, *, #48, .T. ) ;
#239 = DIRECTION ( 'NONE',  ( -0.5000000000000000000, -0.8660254037844385966, 0.000000000000000000 ) ) ;
#240 = AXIS2_PLACEMENT_3D ( 'NONE', #73, #267, #191 ) ;
#241 = DIRECTION ( 'NONE',  ( -1.000000000000000000, 0.000000000000000000, 0.000000000000000000 ) ) ;
#242 = DIRECTION ( 'NONE',  ( -1.000000000000000000, 0.000000000000000000, 0.000000000000000000 ) ) ;
#243 = EDGE_CURVE ( 'NONE', #260, #310, #174, .T. ) ;
#244 = SURFACE_STYLE_USAGE ( .BOTH. , #131 ) ;
#245 = DIRECTION ( 'NONE',  ( -0.5000000000000001110, 0.8660254037844385966, 0.000000000000000000 ) ) ;
#246 = CARTESIAN_POINT ( 'NONE',  ( -0.1472243186433545015, -0.2550000000000001710, -0.06250000000000000000 ) ) ;
#247 = FACE_OUTER_BOUND ( 'NONE', #328, .T. ) ;
#248 = FILL_AREA_STYLE_COLOUR ( '', #177 ) ;
#249 = CARTESIAN_POINT ( 'NONE',  ( 0.1472243186433546402, -0.2550000000000000600, -0.06250000000000000000 ) ) ;
#250 = EDGE_LOOP ( 'NONE', ( #97, #315 ) ) ;
#251 = ADVANCED_FACE ( 'NONE', ( #143 ), #325, .T. ) ;
#252 = DIRECTION ( 'NONE',  ( 0.000000000000000000, 0.000000000000000000, 1.000000000000000000 ) ) ;
#253 = DIMENSIONAL_EXPONENTS ( 1.000000000000000000, 0.000000000000000000, 0.000000000000000000, 0.000000000000000000, 0.000000000000000000, 0.000000000000000000, 0.000000000000000000 ) ;
#254 = CARTESIAN_POINT ( 'NONE',  ( -0.2944486372867092250, 0.000000000000000000, -0.06250000000000000000 ) ) ;
#255 = ORIENTED_EDGE ( 'NONE', *, *, #2, .T. ) ;
#256 = LINE ( 'NONE', #64, #134 ) ;
#257 = ORIENTED_EDGE ( 'NONE', *, *, #243, .T. ) ;
#258 = DIMENSIONAL_EXPONENTS ( 1.000000000000000000, 0.000000000000000000, 0.000000000000000000, 0.000000000000000000, 0.000000000000000000, 0.000000000000000000, 0.000000000000000000 ) ;
#259 = CARTESIAN_POINT ( 'NONE',  ( -0.1472243186433544737, -0.2550000000000001710, 0.06250000000000000000 ) ) ;
#260 = VERTEX_POINT ( 'NONE', #327 ) ;
#261 = VERTEX_POINT ( 'NONE', #26 ) ;
#262 = EDGE_LOOP ( 'NONE', ( #181, #147, #257, #301 ) ) ;
#263 = ADVANCED_FACE ( 'NONE', ( #146 ), #205, .T. ) ;
#264 = LINE ( 'NONE', #98, #321 ) ;
#265 = LINE ( 'NONE', #218, #295 ) ;
#266 = PRESENTATION_LAYER_ASSIGNMENT (  '', '', ( #144 ) ) ;
#267 = DIRECTION ( 'NONE',  ( 0.000000000000000000, 0.000000000000000000, 1.000000000000000000 ) ) ;
#268 = SURFACE_SIDE_STYLE ('',( #329 ) ) ;
#269 = LINE ( 'NONE', #320, #175 ) ;
#270 =( GEOMETRIC_REPRESENTATION_CONTEXT ( 3 ) GLOBAL_UNCERTAINTY_ASSIGNED_CONTEXT ( ( #50 ) ) GLOBAL_UNIT_ASSIGNED_CONTEXT ( ( #130, #78, #217 ) ) REPRESENTATION_CONTEXT ( 'NONE', 'WORKASPACE' ) );
#271 = CARTESIAN_POINT ( 'NONE',  ( 0.1472243186433546402, -0.2550000000000000600, 0.06250000000000000000 ) ) ;
#272 = PRODUCT_DEFINITION ( 'UNKNOWN', '', #167, #149 ) ;
#273 = PLANE ( 'NONE',  #219 ) ;
#274 = EDGE_LOOP ( 'NONE', ( #84, #119, #69, #221 ) ) ;
#275 =( NAMED_UNIT ( * ) SI_UNIT ( $, .STERADIAN. ) SOLID_ANGLE_UNIT ( ) );
#276 = FACE_OUTER_BOUND ( 'NONE', #312, .T. ) ;
#277 = AXIS2_PLACEMENT_3D ( 'NONE', #20, #132, #279 ) ;
#278 = ADVANCED_FACE ( 'NONE', ( #169 ), #62, .T. ) ;
#279 = DIRECTION ( 'NONE',  ( 1.000000000000000000, 0.000000000000000000, 0.000000000000000000 ) ) ;
#280 = ORIENTED_EDGE ( 'NONE', *, *, #141, .F. ) ;
#281 = CARTESIAN_POINT ( 'NONE',  ( 0.000000000000000000, 0.000000000000000000, 0.06250000000000000000 ) ) ;
#282 = CARTESIAN_POINT ( 'NONE',  ( -0.1472243186433544737, -0.2550000000000001710, 0.06250000000000000000 ) ) ;
#283 = EDGE_CURVE ( 'NONE', #289, #127, #304, .T. ) ;
#284 = ORIENTED_EDGE ( 'NONE', *, *, #9, .F. ) ;
#285 = AXIS2_PLACEMENT_3D ( 'NONE', #117, #229, #30 ) ;
#286 = CARTESIAN_POINT ( 'NONE',  ( 0.2944486372867091695, 9.125506018658727786E-17, 0.06250000000000000000 ) ) ;
#287 = LINE ( 'NONE', #122, #25 ) ;
#288 = DIRECTION ( 'NONE',  ( -0.5000000000000001110, 0.8660254037844385966, 0.000000000000000000 ) ) ;
#289 = VERTEX_POINT ( 'NONE', #172 ) ;
#290 = AXIS2_PLACEMENT_3D ( 'NONE', #282, #179, #37 ) ;
#291 = ORIENTED_EDGE ( 'NONE', *, *, #120, .F. ) ;
#292 = CARTESIAN_POINT ( 'NONE',  ( -0.1472243186433544737, -0.2550000000000001710, 0.06250000000000000000 ) ) ;
#293 = EDGE_CURVE ( 'NONE', #232, #289, #351, .T. ) ;
#294 = CARTESIAN_POINT ( 'NONE',  ( 0.1472243186433545847, 0.2550000000000000600, 0.06250000000000000000 ) ) ;
#295 = VECTOR ( 'NONE', #77, 39.37007874015748143 ) ;
#296 = CARTESIAN_POINT ( 'NONE',  ( -0.1472243186433546402, 0.2550000000000000600, 0.06250000000000000000 ) ) ;
#297 = PRODUCT_CONTEXT ( 'NONE', #308, 'mechanical' ) ;
#298 = VECTOR ( 'NONE', #344, 39.37007874015748143 ) ;
#299 = FACE_OUTER_BOUND ( 'NONE', #274, .T. ) ;
#300 = DIRECTION ( 'NONE',  ( 0.5000000000000001110, -0.8660254037844385966, 0.000000000000000000 ) ) ;
#301 = ORIENTED_EDGE ( 'NONE', *, *, #34, .T. ) ;
#302 = CARTESIAN_POINT ( 'NONE',  ( 0.1472243186433545847, 0.2550000000000000600, 0.06250000000000000000 ) ) ;
#303 = FACE_BOUND ( 'NONE', #43, .T. ) ;
#304 = LINE ( 'NONE', #79, #206 ) ;
#305 = VERTEX_POINT ( 'NONE', #254 ) ;
#306 = VECTOR ( 'NONE', #185, 39.37007874015748854 ) ;
#307 = DIRECTION ( 'NONE',  ( 1.000000000000000000, 0.000000000000000000, -0.000000000000000000 ) ) ;
#308 = APPLICATION_CONTEXT ( 'automotive_design' ) ;
#309 = DIRECTION ( 'NONE',  ( 0.5000000000000000000, 0.8660254037844385966, 0.000000000000000000 ) ) ;
#310 = VERTEX_POINT ( 'NONE', #198 ) ;
#311 = CARTESIAN_POINT ( 'NONE',  ( 0.2944486372867091695, 9.125506018658727786E-17, 0.06250000000000000000 ) ) ;
#312 = EDGE_LOOP ( 'NONE', ( #235, #156, #33, #224 ) ) ;
#313 = ORIENTED_EDGE ( 'NONE', *, *, #283, .F. ) ;
#314 = EDGE_CURVE ( 'NONE', #260, #305, #108, .T. ) ;
#315 = ORIENTED_EDGE ( 'NONE', *, *, #124, .T. ) ;
#316 = ORIENTED_EDGE ( 'NONE', *, *, #341, .T. ) ;
#317 = VECTOR ( 'NONE', #166, 39.37007874015748143 ) ;
#318 = DIRECTION ( 'NONE',  ( -0.000000000000000000, -0.000000000000000000, -1.000000000000000000 ) ) ;
#319 = ADVANCED_FACE ( 'NONE', ( #200, #303 ), #57, .T. ) ;
#320 = CARTESIAN_POINT ( 'NONE',  ( -0.1472243186433546402, 0.2550000000000000600, 0.06250000000000000000 ) ) ;
#321 = VECTOR ( 'NONE', #241, 39.37007874015748143 ) ;
#322 = AXIS2_PLACEMENT_3D ( 'NONE', #115, #138, #194 ) ;
#323 = CYLINDRICAL_SURFACE ( 'NONE', #76, 0.3838582677165354173 ) ;
#324 = LENGTH_MEASURE_WITH_UNIT ( LENGTH_MEASURE( 0.02539999999999999897 ), #3 );
#325 = PLANE ( 'NONE',  #82 ) ;
#326 = VECTOR ( 'NONE', #168, 39.37007874015748143 ) ;
#327 = CARTESIAN_POINT ( 'NONE',  ( -0.2944486372867092805, 0.000000000000000000, 0.06250000000000000000 ) ) ;
#328 = EDGE_LOOP ( 'NONE', ( #112, #201 ) ) ;
#329 = SURFACE_STYLE_FILL_AREA ( #222 ) ;
#330 = CARTESIAN_POINT ( 'NONE',  ( -0.3838582677165354173, 0.000000000000000000, 0.06250000000000000000 ) ) ;
#331 = ADVANCED_FACE ( 'NONE', ( #276 ), #150, .T. ) ;
#332 = FACE_OUTER_BOUND ( 'NONE', #68, .T. ) ;
#333 = CARTESIAN_POINT ( 'NONE',  ( -0.1472243186433546402, 0.2550000000000000600, 0.06250000000000000000 ) ) ;
#334 = EDGE_CURVE ( 'NONE', #305, #336, #256, .T. ) ;
#335 = VERTEX_POINT ( 'NONE', #204 ) ;
#336 = VERTEX_POINT ( 'NONE', #246 ) ;
#337 = ORIENTED_EDGE ( 'NONE', *, *, #80, .F. ) ;
#338 = UNCERTAINTY_MEASURE_WITH_UNIT (LENGTH_MEASURE( 1.000000000000000082E-05 ), #173, 'distance_accuracy_value', 'NONE');
#339 = CARTESIAN_POINT ( 'NONE',  ( 0.3838582677165354173, 4.700907988853029121E-17, -0.06250000000000000000 ) ) ;
#340 = ORIENTED_EDGE ( 'NONE', *, *, #9, .T. ) ;
#341 = EDGE_CURVE ( 'NONE', #336, #232, #55, .T. ) ;
#342 = DIRECTION ( 'NONE',  ( -0.000000000000000000, -0.000000000000000000, -1.000000000000000000 ) ) ;
#343 = VECTOR ( 'NONE', #148, 39.37007874015748854 ) ;
#344 = DIRECTION ( 'NONE',  ( 1.000000000000000000, 3.479190826162944257E-16, 0.000000000000000000 ) ) ;
#345 = LINE ( 'NONE', #160, #165 ) ;
#346 = FILL_AREA_STYLE_COLOUR ( '', #123 ) ;
#347 = CIRCLE ( 'NONE', #159, 0.3838582677165354173 ) ;
#348 = ADVANCED_FACE ( 'NONE', ( #299 ), #107, .T. ) ;
#349 =( LENGTH_UNIT ( ) NAMED_UNIT ( * ) SI_UNIT ( $, .METRE. ) );
#350 = SHAPE_DEFINITION_REPRESENTATION ( #214, #63 ) ;
#351 = LINE ( 'NONE', #83, #343 ) ;
ENDSEC;
END-ISO-10303-21;
