ISO-10303-21;
HEADER;
FILE_DESCRIPTION (( 'STEP AP214' ),
    '1' );
FILE_NAME ('WCP-0786 Rev1.step',
    '2022-11-29T01:34:09',
    ( '' ),
    ( '' ),
    'SwSTEP 2.0',
    'SolidWorks 2020',
    '' );
FILE_SCHEMA (( 'AUTOMOTIVE_DESIGN' ));
ENDSEC;

DATA;
#1 = EDGE_LOOP ( 'NONE', ( #162, #210, #324, #185, #263, #266 ) ) ;
#2 = EDGE_LOOP ( 'NONE', ( #267, #320, #31, #239, #129, #158 ) ) ;
#3 =( GEOMETRIC_REPRESENTATION_CONTEXT ( 3 ) GLOBAL_UNCERTAINTY_ASSIGNED_CONTEXT ( ( #47 ) ) GLOBAL_UNIT_ASSIGNED_CONTEXT ( ( #290, #24, #235 ) ) REPRESENTATION_CONTEXT ( 'NONE', 'WORKASPACE' ) );
#4 = ORIENTED_EDGE ( 'NONE', *, *, #246, .T. ) ;
#5 = EDGE_CURVE ( 'NONE', #350, #108, #201, .T. ) ;
#6 = ORIENTED_EDGE ( 'NONE', *, *, #23, .F. ) ;
#7 = CARTESIAN_POINT ( 'NONE',  ( 0.1472243186433545847, 0.2550000000000000600, 0.01562500000000000000 ) ) ;
#8 = DIRECTION ( 'NONE',  ( 1.000000000000000000, 3.479190826162944257E-16, 0.000000000000000000 ) ) ;
#9 = AXIS2_PLACEMENT_3D ( 'NONE', #225, #281, #150 ) ;
#10 =( GEOMETRIC_REPRESENTATION_CONTEXT ( 3 ) GLOBAL_UNCERTAINTY_ASSIGNED_CONTEXT ( ( #15 ) ) GLOBAL_UNIT_ASSIGNED_CONTEXT ( ( #260, #207, #205 ) ) REPRESENTATION_CONTEXT ( 'NONE', 'WORKASPACE' ) );
#11 = DIRECTION ( 'NONE',  ( 0.000000000000000000, 0.000000000000000000, 1.000000000000000000 ) ) ;
#12 = CARTESIAN_POINT ( 'NONE',  ( -0.1472243186433546402, 0.2550000000000000600, 0.01562500000000000000 ) ) ;
#13 = CARTESIAN_POINT ( 'NONE',  ( 0.2944486372867091695, 9.125506018658727786E-17, 0.01562500000000000000 ) ) ;
#14 = CARTESIAN_POINT ( 'NONE',  ( 0.000000000000000000, 0.000000000000000000, 0.01562500000000000000 ) ) ;
#15 = UNCERTAINTY_MEASURE_WITH_UNIT (LENGTH_MEASURE( 1.000000000000000082E-05 ), #260, 'distance_accuracy_value', 'NONE');
#16 = CARTESIAN_POINT ( 'NONE',  ( 0.1472243186433546402, -0.2550000000000000600, 0.01562500000000000000 ) ) ;
#17 = ORIENTED_EDGE ( 'NONE', *, *, #204, .F. ) ;
#18 = DIRECTION ( 'NONE',  ( -0.4999999999999997224, -0.8660254037844388186, 0.000000000000000000 ) ) ;
#19 = AXIS2_PLACEMENT_3D ( 'NONE', #193, #309, #44 ) ;
#20 = LINE ( 'NONE', #174, #317 ) ;
#21 = DIRECTION ( 'NONE',  ( -0.000000000000000000, -0.000000000000000000, -1.000000000000000000 ) ) ;
#22 = LINE ( 'NONE', #223, #233 ) ;
#23 = EDGE_CURVE ( 'NONE', #294, #85, #155, .T. ) ;
#24 =( NAMED_UNIT ( * ) PLANE_ANGLE_UNIT ( ) SI_UNIT ( $, .RADIAN. ) );
#25 = AXIS2_PLACEMENT_3D ( 'NONE', #115, #143, #221 ) ;
#26 = PRESENTATION_STYLE_ASSIGNMENT (( #347 ) ) ;
#27 = AXIS2_PLACEMENT_3D ( 'NONE', #170, #332, #94 ) ;
#28 = ADVANCED_FACE ( 'NONE', ( #135 ), #307, .T. ) ;
#29 = EDGE_LOOP ( 'NONE', ( #96, #296, #160, #154 ) ) ;
#30 = EDGE_LOOP ( 'NONE', ( #17, #214, #208, #241 ) ) ;
#31 = ORIENTED_EDGE ( 'NONE', *, *, #82, .T. ) ;
#32 = STYLED_ITEM ( 'NONE', ( #26 ), #42 ) ;
#33 = ORIENTED_EDGE ( 'NONE', *, *, #131, .T. ) ;
#34 = EDGE_CURVE ( 'NONE', #109, #108, #69, .T. ) ;
#35 = VERTEX_POINT ( 'NONE', #311 ) ;
#36 = LINE ( 'NONE', #137, #159 ) ;
#37 = DIRECTION ( 'NONE',  ( -3.479190826162944257E-16, 1.000000000000000000, 0.000000000000000000 ) ) ;
#38 = LINE ( 'NONE', #141, #180 ) ;
#39 = CARTESIAN_POINT ( 'NONE',  ( 0.2944486372867091695, 9.125506018658727786E-17, -0.01562500000000000000 ) ) ;
#40 = AXIS2_PLACEMENT_3D ( 'NONE', #339, #140, #228 ) ;
#41 = CARTESIAN_POINT ( 'NONE',  ( 0.2944486372867091695, 9.125506018658727786E-17, 0.01562500000000000000 ) ) ;
#42 = ADVANCED_BREP_SHAPE_REPRESENTATION ( 'WCP-0786 Rev1', ( #334, #343 ), #3 ) ;
#43 = DIRECTION ( 'NONE',  ( -1.000000000000000000, 0.000000000000000000, 0.000000000000000000 ) ) ;
#44 = DIRECTION ( 'NONE',  ( 1.000000000000000000, 0.000000000000000000, -0.000000000000000000 ) ) ;
#45 = LENGTH_MEASURE_WITH_UNIT ( LENGTH_MEASURE( 0.02539999999999999897 ), #197 );
#46 = ORIENTED_EDGE ( 'NONE', *, *, #5, .F. ) ;
#47 = UNCERTAINTY_MEASURE_WITH_UNIT (LENGTH_MEASURE( 1.000000000000000082E-05 ), #290, 'distance_accuracy_value', 'NONE');
#48 = PLANE ( 'NONE',  #25 ) ;
#49 = CARTESIAN_POINT ( 'NONE',  ( 0.1472243186433546402, -0.2550000000000000600, 0.01562500000000000000 ) ) ;
#50 = DIRECTION ( 'NONE',  ( 0.4999999999999997224, 0.8660254037844388186, 0.000000000000000000 ) ) ;
#51 = AXIS2_PLACEMENT_3D ( 'NONE', #14, #175, #326 ) ;
#52 = PRODUCT_DEFINITION_SHAPE ( 'NONE', 'NONE',  #346 ) ;
#53 = DIRECTION ( 'NONE',  ( 0.000000000000000000, 0.000000000000000000, 1.000000000000000000 ) ) ;
#54 = EDGE_CURVE ( 'NONE', #130, #86, #220, .T. ) ;
#55 = ORIENTED_EDGE ( 'NONE', *, *, #63, .F. ) ;
#56 = EDGE_LOOP ( 'NONE', ( #57, #284, #58, #265 ) ) ;
#57 = ORIENTED_EDGE ( 'NONE', *, *, #300, .F. ) ;
#58 = ORIENTED_EDGE ( 'NONE', *, *, #318, .T. ) ;
#59 = EDGE_CURVE ( 'NONE', #35, #130, #191, .T. ) ;
#60 = ORIENTED_EDGE ( 'NONE', *, *, #54, .T. ) ;
#61 = CARTESIAN_POINT ( 'NONE',  ( 0.1472243186433546402, -0.2550000000000000600, -0.01562500000000000000 ) ) ;
#62 = DIRECTION ( 'NONE',  ( 0.000000000000000000, 0.000000000000000000, 1.000000000000000000 ) ) ;
#63 = EDGE_CURVE ( 'NONE', #85, #292, #249, .T. ) ;
#64 = LINE ( 'NONE', #39, #102 ) ;
#65 = FACE_OUTER_BOUND ( 'NONE', #83, .T. ) ;
#66 = DIRECTION ( 'NONE',  ( 0.000000000000000000, 0.000000000000000000, 1.000000000000000000 ) ) ;
#67 = PRESENTATION_LAYER_ASSIGNMENT (  '', '', ( #268 ) ) ;
#68 = DIRECTION ( 'NONE',  ( -0.5000000000000001110, 0.8660254037844385966, 0.000000000000000000 ) ) ;
#69 = LINE ( 'NONE', #280, #238 ) ;
#70 = DIMENSIONAL_EXPONENTS ( 1.000000000000000000, 0.000000000000000000, 0.000000000000000000, 0.000000000000000000, 0.000000000000000000, 0.000000000000000000, 0.000000000000000000 ) ;
#71 = DIRECTION ( 'NONE',  ( 0.8660254037844387076, -0.5000000000000001110, 0.000000000000000000 ) ) ;
#72 = DIRECTION ( 'NONE',  ( -0.000000000000000000, -0.000000000000000000, -1.000000000000000000 ) ) ;
#73 = CARTESIAN_POINT ( 'NONE',  ( -0.1472243186433545015, -0.2550000000000001710, -0.01562500000000000000 ) ) ;
#74 = ADVANCED_FACE ( 'NONE', ( #224 ), #251, .T. ) ;
#75 = LINE ( 'NONE', #16, #166 ) ;
#76 = VECTOR ( 'NONE', #199, 39.37007874015748143 ) ;
#77 = DIRECTION ( 'NONE',  ( -0.000000000000000000, -0.000000000000000000, -1.000000000000000000 ) ) ;
#78 =( LENGTH_UNIT ( ) NAMED_UNIT ( * ) SI_UNIT ( $, .METRE. ) );
#79 = SHAPE_DEFINITION_REPRESENTATION ( #52, #42 ) ;
#80 = MECHANICAL_DESIGN_GEOMETRIC_PRESENTATION_REPRESENTATION (  '', ( #32 ), #10 ) ;
#81 = VERTEX_POINT ( 'NONE', #244 ) ;
#82 = EDGE_CURVE ( 'NONE', #322, #350, #64, .T. ) ;
#83 = EDGE_LOOP ( 'NONE', ( #46, #240, #88, #216 ) ) ;
#84 = AXIS2_PLACEMENT_3D ( 'NONE', #277, #245, #43 ) ;
#85 = VERTEX_POINT ( 'NONE', #111 ) ;
#86 = VERTEX_POINT ( 'NONE', #61 ) ;
#87 = VECTOR ( 'NONE', #121, 39.37007874015748143 ) ;
#88 = ORIENTED_EDGE ( 'NONE', *, *, #153, .T. ) ;
#89 =( NAMED_UNIT ( * ) PLANE_ANGLE_UNIT ( ) SI_UNIT ( $, .RADIAN. ) );
#90 = EDGE_CURVE ( 'NONE', #109, #295, #217, .T. ) ;
#91 = CARTESIAN_POINT ( 'NONE',  ( -0.2944486372867092250, 0.000000000000000000, 0.01562500000000000000 ) ) ;
#92 = LINE ( 'NONE', #13, #126 ) ;
#93 = DIRECTION ( 'NONE',  ( 1.000000000000000000, 0.000000000000000000, 0.000000000000000000 ) ) ;
#94 = DIRECTION ( 'NONE',  ( 1.000000000000000000, 0.000000000000000000, 0.000000000000000000 ) ) ;
#95 = SURFACE_STYLE_FILL_AREA ( #303 ) ;
#96 = ORIENTED_EDGE ( 'NONE', *, *, #321, .F. ) ;
#97 = PLANE ( 'NONE',  #242 ) ;
#98 = CARTESIAN_POINT ( 'NONE',  ( 0.3838582677165354173, 4.700907988853029121E-17, 0.01562500000000000000 ) ) ;
#99 = EDGE_CURVE ( 'NONE', #243, #86, #36, .T. ) ;
#100 = DIRECTION ( 'NONE',  ( -0.5000000000000000000, -0.8660254037844385966, 0.000000000000000000 ) ) ;
#101 = FACE_OUTER_BOUND ( 'NONE', #183, .T. ) ;
#102 = VECTOR ( 'NONE', #118, 39.37007874015748143 ) ;
#103 = CARTESIAN_POINT ( 'NONE',  ( 0.000000000000000000, 0.000000000000000000, 0.000000000000000000 ) ) ;
#104 = AXIS2_PLACEMENT_3D ( 'NONE', #173, #71, #202 ) ;
#105 = ORIENTED_EDGE ( 'NONE', *, *, #351, .F. ) ;
#106 = ADVANCED_FACE ( 'NONE', ( #114 ), #329, .T. ) ;
#107 = EDGE_LOOP ( 'NONE', ( #336, #105, #291, #60 ) ) ;
#108 = VERTEX_POINT ( 'NONE', #139 ) ;
#109 = VERTEX_POINT ( 'NONE', #12 ) ;
#110 = EDGE_LOOP ( 'NONE', ( #273, #156, #269, #167 ) ) ;
#111 = CARTESIAN_POINT ( 'NONE',  ( 0.3838582677165354173, 4.700907988853029121E-17, 0.01562500000000000000 ) ) ;
#112 = CARTESIAN_POINT ( 'NONE',  ( 0.1472243186433545847, 0.2550000000000000600, -0.01562500000000000000 ) ) ;
#113 = VECTOR ( 'NONE', #271, 39.37007874015748854 ) ;
#114 = FACE_OUTER_BOUND ( 'NONE', #29, .T. ) ;
#115 = CARTESIAN_POINT ( 'NONE',  ( 0.1472243186433545847, 0.2550000000000000600, 0.01562500000000000000 ) ) ;
#116 = CARTESIAN_POINT ( 'NONE',  ( 0.000000000000000000, 0.000000000000000000, 0.01562500000000000000 ) ) ;
#117 = LINE ( 'NONE', #305, #128 ) ;
#118 = DIRECTION ( 'NONE',  ( -0.5000000000000001110, 0.8660254037844385966, 0.000000000000000000 ) ) ;
#119 = PLANE ( 'NONE',  #9 ) ;
#120 = EDGE_CURVE ( 'NONE', #86, #322, #222, .T. ) ;
#121 = DIRECTION ( 'NONE',  ( 1.000000000000000000, 3.479190826162944257E-16, 0.000000000000000000 ) ) ;
#122 = CARTESIAN_POINT ( 'NONE',  ( -0.2944486372867092250, 0.000000000000000000, 0.01562500000000000000 ) ) ;
#123 =( CONVERSION_BASED_UNIT ( 'INCH', #45 ) LENGTH_UNIT ( ) NAMED_UNIT ( #299 ) );
#124 = LINE ( 'NONE', #285, #256 ) ;
#125 = FACE_OUTER_BOUND ( 'NONE', #187, .T. ) ;
#126 = VECTOR ( 'NONE', #169, 39.37007874015748143 ) ;
#127 = CARTESIAN_POINT ( 'NONE',  ( -0.1472243186433544737, -0.2550000000000001710, 0.01562500000000000000 ) ) ;
#128 = VECTOR ( 'NONE', #100, 39.37007874015748854 ) ;
#129 = ORIENTED_EDGE ( 'NONE', *, *, #204, .T. ) ;
#130 = VERTEX_POINT ( 'NONE', #49 ) ;
#131 = EDGE_CURVE ( 'NONE', #294, #81, #148, .T. ) ;
#132 = ORIENTED_EDGE ( 'NONE', *, *, #300, .T. ) ;
#133 =( GEOMETRIC_REPRESENTATION_CONTEXT ( 3 ) GLOBAL_UNCERTAINTY_ASSIGNED_CONTEXT ( ( #341 ) ) GLOBAL_UNIT_ASSIGNED_CONTEXT ( ( #123, #89, #306 ) ) REPRESENTATION_CONTEXT ( 'NONE', 'WORKASPACE' ) );
#134 = ORIENTED_EDGE ( 'NONE', *, *, #318, .F. ) ;
#135 = FACE_OUTER_BOUND ( 'NONE', #56, .T. ) ;
#136 = FILL_AREA_STYLE_COLOUR ( '', #190 ) ;
#137 = CARTESIAN_POINT ( 'NONE',  ( -0.1472243186433544737, -0.2550000000000001710, -0.01562500000000000000 ) ) ;
#138 = FACE_BOUND ( 'NONE', #2, .T. ) ;
#139 = CARTESIAN_POINT ( 'NONE',  ( -0.1472243186433546402, 0.2550000000000000600, -0.01562500000000000000 ) ) ;
#140 = DIRECTION ( 'NONE',  ( 0.000000000000000000, 0.000000000000000000, 1.000000000000000000 ) ) ;
#141 = CARTESIAN_POINT ( 'NONE',  ( -0.2944486372867092250, 0.000000000000000000, 0.01562500000000000000 ) ) ;
#142 = DIRECTION ( 'NONE',  ( -0.000000000000000000, -0.000000000000000000, -1.000000000000000000 ) ) ;
#143 = DIRECTION ( 'NONE',  ( 0.000000000000000000, -1.000000000000000000, 0.000000000000000000 ) ) ;
#144 = SURFACE_STYLE_USAGE ( .BOTH. , #165 ) ;
#145 = DIRECTION ( 'NONE',  ( -0.000000000000000000, -0.000000000000000000, -1.000000000000000000 ) ) ;
#146 = FACE_BOUND ( 'NONE', #1, .T. ) ;
#147 = DIRECTION ( 'NONE',  ( 0.5000000000000002220, -0.8660254037844384856, 0.000000000000000000 ) ) ;
#148 = LINE ( 'NONE', #257, #186 ) ;
#149 = AXIS2_PLACEMENT_3D ( 'NONE', #91, #301, #163 ) ;
#150 = DIRECTION ( 'NONE',  ( 0.5000000000000001110, -0.8660254037844385966, 0.000000000000000000 ) ) ;
#151 = LINE ( 'NONE', #127, #262 ) ;
#152 = SURFACE_STYLE_FILL_AREA ( #344 ) ;
#153 = EDGE_CURVE ( 'NONE', #349, #109, #124, .T. ) ;
#154 = ORIENTED_EDGE ( 'NONE', *, *, #351, .T. ) ;
#155 = CIRCLE ( 'NONE', #198, 0.3838582677165354173 ) ;
#156 = ORIENTED_EDGE ( 'NONE', *, *, #315, .F. ) ;
#157 = ORIENTED_EDGE ( 'NONE', *, *, #23, .T. ) ;
#158 = ORIENTED_EDGE ( 'NONE', *, *, #321, .T. ) ;
#159 = VECTOR ( 'NONE', #8, 39.37007874015748143 ) ;
#160 = ORIENTED_EDGE ( 'NONE', *, *, #328, .T. ) ;
#161 = ADVANCED_FACE ( 'NONE', ( #65 ), #48, .T. ) ;
#162 = ORIENTED_EDGE ( 'NONE', *, *, #283, .F. ) ;
#163 = DIRECTION ( 'NONE',  ( -0.5000000000000002220, 0.8660254037844384856, 0.000000000000000000 ) ) ;
#164 = DIRECTION ( 'NONE',  ( -1.000000000000000000, 0.000000000000000000, 0.000000000000000000 ) ) ;
#165 = SURFACE_SIDE_STYLE ('',( #95 ) ) ;
#166 = VECTOR ( 'NONE', #50, 39.37007874015748854 ) ;
#167 = ORIENTED_EDGE ( 'NONE', *, *, #338, .T. ) ;
#168 = ADVANCED_FACE ( 'NONE', ( #196 ), #200, .T. ) ;
#169 = DIRECTION ( 'NONE',  ( -0.000000000000000000, -0.000000000000000000, -1.000000000000000000 ) ) ;
#170 = CARTESIAN_POINT ( 'NONE',  ( 0.000000000000000000, 0.000000000000000000, -0.01562500000000000000 ) ) ;
#171 = LINE ( 'NONE', #7, #213 ) ;
#172 = VERTEX_POINT ( 'NONE', #255 ) ;
#173 = CARTESIAN_POINT ( 'NONE',  ( -0.1472243186433546402, 0.2550000000000000600, 0.01562500000000000000 ) ) ;
#174 = CARTESIAN_POINT ( 'NONE',  ( -0.2944486372867092250, 0.000000000000000000, -0.01562500000000000000 ) ) ;
#175 = DIRECTION ( 'NONE',  ( -0.000000000000000000, -0.000000000000000000, -1.000000000000000000 ) ) ;
#176 = DIRECTION ( 'NONE',  ( -0.000000000000000000, -0.000000000000000000, -1.000000000000000000 ) ) ;
#177 = VECTOR ( 'NONE', #145, 39.37007874015748143 ) ;
#178 = CARTESIAN_POINT ( 'NONE',  ( -0.3838582677165354173, 0.000000000000000000, 0.01562500000000000000 ) ) ;
#179 = LENGTH_MEASURE_WITH_UNIT ( LENGTH_MEASURE( 0.02539999999999999897 ), #314 );
#180 = VECTOR ( 'NONE', #310, 39.37007874015748854 ) ;
#181 = COLOUR_RGB ( '',0.8666666666666666963, 0.9098039215686274384, 1.000000000000000000 ) ;
#182 = FILL_AREA_STYLE_COLOUR ( '', #181 ) ;
#183 = EDGE_LOOP ( 'NONE', ( #325, #195, #189, #319 ) ) ;
#184 = ADVANCED_FACE ( 'NONE', ( #125, #138 ), #275, .F. ) ;
#185 = ORIENTED_EDGE ( 'NONE', *, *, #90, .F. ) ;
#186 = VECTOR ( 'NONE', #21, 39.37007874015748143 ) ;
#187 = EDGE_LOOP ( 'NONE', ( #237, #134 ) ) ;
#188 = EDGE_LOOP ( 'NONE', ( #157, #132 ) ) ;
#189 = ORIENTED_EDGE ( 'NONE', *, *, #283, .T. ) ;
#190 = COLOUR_RGB ( '',0.8666666666666666963, 0.9098039215686274384, 1.000000000000000000 ) ;
#191 = LINE ( 'NONE', #254, #87 ) ;
#192 = CARTESIAN_POINT ( 'NONE',  ( 0.1472243186433546402, -0.2550000000000000600, 0.01562500000000000000 ) ) ;
#193 = CARTESIAN_POINT ( 'NONE',  ( 0.000000000000000000, 0.000000000000000000, -0.01562500000000000000 ) ) ;
#194 = ADVANCED_FACE ( 'NONE', ( #232, #146 ), #302, .T. ) ;
#195 = ORIENTED_EDGE ( 'NONE', *, *, #54, .F. ) ;
#196 = FACE_OUTER_BOUND ( 'NONE', #107, .T. ) ;
#197 =( LENGTH_UNIT ( ) NAMED_UNIT ( * ) SI_UNIT ( $, .METRE. ) );
#198 = AXIS2_PLACEMENT_3D ( 'NONE', #116, #66, #93 ) ;
#199 = DIRECTION ( 'NONE',  ( -1.000000000000000000, 0.000000000000000000, 0.000000000000000000 ) ) ;
#200 = PLANE ( 'NONE',  #287 ) ;
#201 = LINE ( 'NONE', #304, #76 ) ;
#202 = DIRECTION ( 'NONE',  ( 0.5000000000000000000, 0.8660254037844385966, 0.000000000000000000 ) ) ;
#203 = FACE_OUTER_BOUND ( 'NONE', #30, .T. ) ;
#204 = EDGE_CURVE ( 'NONE', #108, #172, #117, .T. ) ;
#205 =( NAMED_UNIT ( * ) SI_UNIT ( $, .STERADIAN. ) SOLID_ANGLE_UNIT ( ) );
#206 = VECTOR ( 'NONE', #230, 39.37007874015748854 ) ;
#207 =( NAMED_UNIT ( * ) PLANE_ANGLE_UNIT ( ) SI_UNIT ( $, .RADIAN. ) );
#208 = ORIENTED_EDGE ( 'NONE', *, *, #90, .T. ) ;
#209 = PRODUCT_RELATED_PRODUCT_CATEGORY ( 'part', '', ( #345 ) ) ;
#210 = ORIENTED_EDGE ( 'NONE', *, *, #59, .F. ) ;
#211 = APPLICATION_CONTEXT ( 'automotive_design' ) ;
#212 = EDGE_LOOP ( 'NONE', ( #55, #6, #33, #4 ) ) ;
#213 = VECTOR ( 'NONE', #279, 39.37007874015748143 ) ;
#214 = ORIENTED_EDGE ( 'NONE', *, *, #34, .F. ) ;
#215 = ADVANCED_FACE ( 'NONE', ( #101 ), #97, .T. ) ;
#216 = ORIENTED_EDGE ( 'NONE', *, *, #34, .T. ) ;
#217 = LINE ( 'NONE', #298, #113 ) ;
#218 = APPLICATION_CONTEXT ( 'automotive_design' ) ;
#219 = AXIS2_PLACEMENT_3D ( 'NONE', #286, #62, #272 ) ;
#220 = LINE ( 'NONE', #192, #177 ) ;
#221 = DIRECTION ( 'NONE',  ( 0.000000000000000000, -0.000000000000000000, -1.000000000000000000 ) ) ;
#222 = LINE ( 'NONE', #331, #206 ) ;
#223 = CARTESIAN_POINT ( 'NONE',  ( 0.2944486372867091695, 9.125506018658727786E-17, 0.01562500000000000000 ) ) ;
#224 = FACE_OUTER_BOUND ( 'NONE', #212, .T. ) ;
#225 = CARTESIAN_POINT ( 'NONE',  ( 0.2944486372867091695, 9.125506018658727786E-17, 0.01562500000000000000 ) ) ;
#226 = PRESENTATION_LAYER_ASSIGNMENT (  '', '', ( #32 ) ) ;
#227 = VERTEX_POINT ( 'NONE', #41 ) ;
#228 = DIRECTION ( 'NONE',  ( 1.000000000000000000, 0.000000000000000000, -0.000000000000000000 ) ) ;
#229 = CARTESIAN_POINT ( 'NONE',  ( 0.1472243186433545847, 0.2550000000000000600, 0.01562500000000000000 ) ) ;
#230 = DIRECTION ( 'NONE',  ( 0.4999999999999997224, 0.8660254037844388186, 0.000000000000000000 ) ) ;
#231 = EDGE_CURVE ( 'NONE', #227, #349, #22, .T. ) ;
#232 = FACE_OUTER_BOUND ( 'NONE', #188, .T. ) ;
#233 = VECTOR ( 'NONE', #68, 39.37007874015748143 ) ;
#234 = LENGTH_MEASURE_WITH_UNIT ( LENGTH_MEASURE( 0.02539999999999999897 ), #78 );
#235 =( NAMED_UNIT ( * ) SI_UNIT ( $, .STERADIAN. ) SOLID_ANGLE_UNIT ( ) );
#236 = SURFACE_SIDE_STYLE ('',( #152 ) ) ;
#237 = ORIENTED_EDGE ( 'NONE', *, *, #246, .F. ) ;
#238 = VECTOR ( 'NONE', #142, 39.37007874015748143 ) ;
#239 = ORIENTED_EDGE ( 'NONE', *, *, #5, .T. ) ;
#240 = ORIENTED_EDGE ( 'NONE', *, *, #338, .F. ) ;
#241 = ORIENTED_EDGE ( 'NONE', *, *, #261, .T. ) ;
#242 = AXIS2_PLACEMENT_3D ( 'NONE', #337, #252, #18 ) ;
#243 = VERTEX_POINT ( 'NONE', #73 ) ;
#244 = CARTESIAN_POINT ( 'NONE',  ( -0.3838582677165354173, 0.000000000000000000, -0.01562500000000000000 ) ) ;
#245 = DIRECTION ( 'NONE',  ( -0.000000000000000000, -0.000000000000000000, -1.000000000000000000 ) ) ;
#246 = EDGE_CURVE ( 'NONE', #81, #292, #327, .T. ) ;
#247 = CARTESIAN_POINT ( 'NONE',  ( -0.2944486372867092805, 0.000000000000000000, 0.01562500000000000000 ) ) ;
#248 = VECTOR ( 'NONE', #72, 39.37007874015748143 ) ;
#249 = LINE ( 'NONE', #98, #248 ) ;
#250 = DIRECTION ( 'NONE',  ( -1.000000000000000000, -3.479190826162944257E-16, 0.000000000000000000 ) ) ;
#251 = CYLINDRICAL_SURFACE ( 'NONE', #51, 0.3838582677165354173 ) ;
#252 = DIRECTION ( 'NONE',  ( -0.8660254037844388186, 0.4999999999999997224, 0.000000000000000000 ) ) ;
#253 = CARTESIAN_POINT ( 'NONE',  ( 0.2944486372867091695, 9.125506018658727786E-17, -0.01562500000000000000 ) ) ;
#254 = CARTESIAN_POINT ( 'NONE',  ( -0.1472243186433544737, -0.2550000000000001710, 0.01562500000000000000 ) ) ;
#255 = CARTESIAN_POINT ( 'NONE',  ( -0.2944486372867092250, 0.000000000000000000, -0.01562500000000000000 ) ) ;
#256 = VECTOR ( 'NONE', #164, 39.37007874015748143 ) ;
#257 = CARTESIAN_POINT ( 'NONE',  ( -0.3838582677165354173, 0.000000000000000000, 0.01562500000000000000 ) ) ;
#258 = CARTESIAN_POINT ( 'NONE',  ( 0.3838582677165354173, 4.700907988853029121E-17, -0.01562500000000000000 ) ) ;
#259 = DIRECTION ( 'NONE',  ( 1.000000000000000000, 0.000000000000000000, 0.000000000000000000 ) ) ;
#260 =( CONVERSION_BASED_UNIT ( 'INCH', #179 ) LENGTH_UNIT ( ) NAMED_UNIT ( #274 ) );
#261 = EDGE_CURVE ( 'NONE', #295, #172, #278, .T. ) ;
#262 = VECTOR ( 'NONE', #77, 39.37007874015748143 ) ;
#263 = ORIENTED_EDGE ( 'NONE', *, *, #153, .F. ) ;
#264 = MECHANICAL_DESIGN_GEOMETRIC_PRESENTATION_REPRESENTATION (  '', ( #268 ), #133 ) ;
#265 = ORIENTED_EDGE ( 'NONE', *, *, #131, .F. ) ;
#266 = ORIENTED_EDGE ( 'NONE', *, *, #231, .F. ) ;
#267 = ORIENTED_EDGE ( 'NONE', *, *, #99, .T. ) ;
#268 = STYLED_ITEM ( 'NONE', ( #282 ), #334 ) ;
#269 = ORIENTED_EDGE ( 'NONE', *, *, #231, .T. ) ;
#270 = ADVANCED_FACE ( 'NONE', ( #203 ), #313, .T. ) ;
#271 = DIRECTION ( 'NONE',  ( -0.5000000000000000000, -0.8660254037844385966, 0.000000000000000000 ) ) ;
#272 = DIRECTION ( 'NONE',  ( 1.000000000000000000, 0.000000000000000000, 0.000000000000000000 ) ) ;
#273 = ORIENTED_EDGE ( 'NONE', *, *, #82, .F. ) ;
#274 = DIMENSIONAL_EXPONENTS ( 1.000000000000000000, 0.000000000000000000, 0.000000000000000000, 0.000000000000000000, 0.000000000000000000, 0.000000000000000000, 0.000000000000000000 ) ;
#275 = PLANE ( 'NONE',  #19 ) ;
#276 = VECTOR ( 'NONE', #176, 39.37007874015748143 ) ;
#277 = CARTESIAN_POINT ( 'NONE',  ( 0.000000000000000000, 0.000000000000000000, 0.01562500000000000000 ) ) ;
#278 = LINE ( 'NONE', #122, #276 ) ;
#279 = DIRECTION ( 'NONE',  ( -0.000000000000000000, -0.000000000000000000, -1.000000000000000000 ) ) ;
#280 = CARTESIAN_POINT ( 'NONE',  ( -0.1472243186433546402, 0.2550000000000000600, 0.01562500000000000000 ) ) ;
#281 = DIRECTION ( 'NONE',  ( -0.8660254037844385966, -0.5000000000000001110, 0.000000000000000000 ) ) ;
#282 = PRESENTATION_STYLE_ASSIGNMENT (( #144 ) ) ;
#283 = EDGE_CURVE ( 'NONE', #130, #227, #75, .T. ) ;
#284 = ORIENTED_EDGE ( 'NONE', *, *, #63, .T. ) ;
#285 = CARTESIAN_POINT ( 'NONE',  ( 0.1472243186433545847, 0.2550000000000000600, 0.01562500000000000000 ) ) ;
#286 = CARTESIAN_POINT ( 'NONE',  ( 0.000000000000000000, 0.000000000000000000, -0.01562500000000000000 ) ) ;
#287 = AXIS2_PLACEMENT_3D ( 'NONE', #312, #37, #250 ) ;
#288 = PRODUCT_DEFINITION_FORMATION_WITH_SPECIFIED_SOURCE ( 'ANY', '', #345, .NOT_KNOWN. ) ;
#289 = ADVANCED_FACE ( 'NONE', ( #335 ), #119, .T. ) ;
#290 =( CONVERSION_BASED_UNIT ( 'INCH', #234 ) LENGTH_UNIT ( ) NAMED_UNIT ( #70 ) );
#291 = ORIENTED_EDGE ( 'NONE', *, *, #59, .T. ) ;
#292 = VERTEX_POINT ( 'NONE', #258 ) ;
#293 = CLOSED_SHELL ( 'NONE', ( #28, #194, #184, #74, #168, #215, #289, #161, #270, #106 ) ) ;
#294 = VERTEX_POINT ( 'NONE', #178 ) ;
#295 = VERTEX_POINT ( 'NONE', #247 ) ;
#296 = ORIENTED_EDGE ( 'NONE', *, *, #261, .F. ) ;
#297 = CIRCLE ( 'NONE', #348, 0.3838582677165354173 ) ;
#298 = CARTESIAN_POINT ( 'NONE',  ( -0.1472243186433546402, 0.2550000000000000600, 0.01562500000000000000 ) ) ;
#299 = DIMENSIONAL_EXPONENTS ( 1.000000000000000000, 0.000000000000000000, 0.000000000000000000, 0.000000000000000000, 0.000000000000000000, 0.000000000000000000, 0.000000000000000000 ) ;
#300 = EDGE_CURVE ( 'NONE', #85, #294, #297, .T. ) ;
#301 = DIRECTION ( 'NONE',  ( 0.8660254037844385966, 0.5000000000000003331, -0.000000000000000000 ) ) ;
#302 = PLANE ( 'NONE',  #40 ) ;
#303 = FILL_AREA_STYLE ('',( #136 ) ) ;
#304 = CARTESIAN_POINT ( 'NONE',  ( 0.1472243186433545847, 0.2550000000000000600, -0.01562500000000000000 ) ) ;
#305 = CARTESIAN_POINT ( 'NONE',  ( -0.1472243186433546402, 0.2550000000000000600, -0.01562500000000000000 ) ) ;
#306 =( NAMED_UNIT ( * ) SI_UNIT ( $, .STERADIAN. ) SOLID_ANGLE_UNIT ( ) );
#307 = CYLINDRICAL_SURFACE ( 'NONE', #84, 0.3838582677165354173 ) ;
#308 = PRODUCT_DEFINITION_CONTEXT ( 'detailed design', #211, 'design' ) ;
#309 = DIRECTION ( 'NONE',  ( 0.000000000000000000, 0.000000000000000000, 1.000000000000000000 ) ) ;
#310 = DIRECTION ( 'NONE',  ( 0.5000000000000002220, -0.8660254037844384856, 0.000000000000000000 ) ) ;
#311 = CARTESIAN_POINT ( 'NONE',  ( -0.1472243186433544737, -0.2550000000000001710, 0.01562500000000000000 ) ) ;
#312 = CARTESIAN_POINT ( 'NONE',  ( -0.1472243186433544737, -0.2550000000000001710, 0.01562500000000000000 ) ) ;
#313 = PLANE ( 'NONE',  #104 ) ;
#314 =( LENGTH_UNIT ( ) NAMED_UNIT ( * ) SI_UNIT ( $, .METRE. ) );
#315 = EDGE_CURVE ( 'NONE', #227, #322, #92, .T. ) ;
#316 = APPLICATION_PROTOCOL_DEFINITION ( 'draft international standard', 'automotive_design', 1998, #211 ) ;
#317 = VECTOR ( 'NONE', #147, 39.37007874015748854 ) ;
#318 = EDGE_CURVE ( 'NONE', #292, #81, #323, .T. ) ;
#319 = ORIENTED_EDGE ( 'NONE', *, *, #315, .T. ) ;
#320 = ORIENTED_EDGE ( 'NONE', *, *, #120, .T. ) ;
#321 = EDGE_CURVE ( 'NONE', #172, #243, #20, .T. ) ;
#322 = VERTEX_POINT ( 'NONE', #253 ) ;
#323 = CIRCLE ( 'NONE', #219, 0.3838582677165354173 ) ;
#324 = ORIENTED_EDGE ( 'NONE', *, *, #328, .F. ) ;
#325 = ORIENTED_EDGE ( 'NONE', *, *, #120, .F. ) ;
#326 = DIRECTION ( 'NONE',  ( -1.000000000000000000, 0.000000000000000000, 0.000000000000000000 ) ) ;
#327 = CIRCLE ( 'NONE', #27, 0.3838582677165354173 ) ;
#328 = EDGE_CURVE ( 'NONE', #295, #35, #38, .T. ) ;
#329 = PLANE ( 'NONE',  #149 ) ;
#330 = DIRECTION ( 'NONE',  ( 1.000000000000000000, 0.000000000000000000, 0.000000000000000000 ) ) ;
#331 = CARTESIAN_POINT ( 'NONE',  ( 0.1472243186433546402, -0.2550000000000000600, -0.01562500000000000000 ) ) ;
#332 = DIRECTION ( 'NONE',  ( 0.000000000000000000, 0.000000000000000000, 1.000000000000000000 ) ) ;
#333 = CARTESIAN_POINT ( 'NONE',  ( 0.000000000000000000, 0.000000000000000000, 0.01562500000000000000 ) ) ;
#334 = MANIFOLD_SOLID_BREP ( 'Boss-Extrude1', #293 ) ;
#335 = FACE_OUTER_BOUND ( 'NONE', #110, .T. ) ;
#336 = ORIENTED_EDGE ( 'NONE', *, *, #99, .F. ) ;
#337 = CARTESIAN_POINT ( 'NONE',  ( 0.1472243186433546402, -0.2550000000000000600, 0.01562500000000000000 ) ) ;
#338 = EDGE_CURVE ( 'NONE', #349, #350, #171, .T. ) ;
#339 = CARTESIAN_POINT ( 'NONE',  ( 0.000000000000000000, 0.000000000000000000, 0.01562500000000000000 ) ) ;
#340 = PRODUCT_CONTEXT ( 'NONE', #218, 'mechanical' ) ;
#341 = UNCERTAINTY_MEASURE_WITH_UNIT (LENGTH_MEASURE( 1.000000000000000082E-05 ), #123, 'distance_accuracy_value', 'NONE');
#342 = APPLICATION_PROTOCOL_DEFINITION ( 'draft international standard', 'automotive_design', 1998, #218 ) ;
#343 = AXIS2_PLACEMENT_3D ( 'NONE', #103, #53, #259 ) ;
#344 = FILL_AREA_STYLE ('',( #182 ) ) ;
#345 = PRODUCT ( 'WCP-0786 Rev1', 'WCP-0786 Rev1', '', ( #340 ) ) ;
#346 = PRODUCT_DEFINITION ( 'UNKNOWN', '', #288, #308 ) ;
#347 = SURFACE_STYLE_USAGE ( .BOTH. , #236 ) ;
#348 = AXIS2_PLACEMENT_3D ( 'NONE', #333, #11, #330 ) ;
#349 = VERTEX_POINT ( 'NONE', #229 ) ;
#350 = VERTEX_POINT ( 'NONE', #112 ) ;
#351 = EDGE_CURVE ( 'NONE', #35, #243, #151, .T. ) ;
ENDSEC;
END-ISO-10303-21;
