ISO-10303-21;
HEADER;
FILE_DESCRIPTION (( 'STEP AP214' ),
    '1' );
FILE_NAME ('WCP-0570 Rev1.STEP',
    '2022-12-21T01:39:37',
    ( '' ),
    ( '' ),
    'SwSTEP 2.0',
    'SolidWorks 2020',
    '' );
FILE_SCHEMA (( 'AUTOMOTIVE_DESIGN' ));
ENDSEC;

DATA;
#1 = EDGE_CURVE ( 'NONE', #109, #34, #75, .T. ) ;
#2 = FILL_AREA_STYLE_COLOUR ( '', #179 ) ;
#3 = DIRECTION ( 'NONE',  ( 0.000000000000000000, 0.000000000000000000, 1.000000000000000000 ) ) ;
#4 = AXIS2_PLACEMENT_3D ( 'NONE', #207, #192, #163 ) ;
#5 = DIRECTION ( 'NONE',  ( 0.000000000000000000, 0.000000000000000000, -1.000000000000000000 ) ) ;
#6 = UNCERTAINTY_MEASURE_WITH_UNIT (LENGTH_MEASURE( 1.000000000000000082E-05 ), #222, 'distance_accuracy_value', 'NONE');
#7 = DIRECTION ( 'NONE',  ( 1.000000000000000000, 0.000000000000000000, 0.000000000000000000 ) ) ;
#8 = AXIS2_PLACEMENT_3D ( 'NONE', #33, #105, #95 ) ;
#9 = FACE_OUTER_BOUND ( 'NONE', #126, .T. ) ;
#10 = CYLINDRICAL_SURFACE ( 'NONE', #159, 0.5629999999999999449 ) ;
#11 = ORIENTED_EDGE ( 'NONE', *, *, #14, .F. ) ;
#12 =( GEOMETRIC_REPRESENTATION_CONTEXT ( 3 ) GLOBAL_UNCERTAINTY_ASSIGNED_CONTEXT ( ( #151 ) ) GLOBAL_UNIT_ASSIGNED_CONTEXT ( ( #116, #92, #38 ) ) REPRESENTATION_CONTEXT ( 'NONE', 'WORKASPACE' ) );
#13 = PRESENTATION_STYLE_ASSIGNMENT (( #214 ) ) ;
#14 = EDGE_CURVE ( 'NONE', #158, #35, #49, .T. ) ;
#15 =( NAMED_UNIT ( * ) SI_UNIT ( $, .STERADIAN. ) SOLID_ANGLE_UNIT ( ) );
#16 = EDGE_LOOP ( 'NONE', ( #149, #17 ) ) ;
#17 = ORIENTED_EDGE ( 'NONE', *, *, #147, .T. ) ;
#18 = PRESENTATION_LAYER_ASSIGNMENT (  '', '', ( #200 ) ) ;
#19 = PRESENTATION_STYLE_ASSIGNMENT (( #176 ) ) ;
#20 = ADVANCED_FACE ( 'NONE', ( #22 ), #120, .F. ) ;
#21 = DIRECTION ( 'NONE',  ( -1.000000000000000000, -0.000000000000000000, -0.000000000000000000 ) ) ;
#22 = FACE_OUTER_BOUND ( 'NONE', #170, .T. ) ;
#23 = VECTOR ( 'NONE', #21, 39.37007874015748143 ) ;
#24 = DIRECTION ( 'NONE',  ( 0.000000000000000000, 0.000000000000000000, -1.000000000000000000 ) ) ;
#25 = CARTESIAN_POINT ( 'NONE',  ( -0.01562500000000000000, 0.000000000000000000, 0.5629999999999999449 ) ) ;
#26 = DIRECTION ( 'NONE',  ( 0.000000000000000000, 0.000000000000000000, 1.000000000000000000 ) ) ;
#27 = AXIS2_PLACEMENT_3D ( 'NONE', #65, #128, #186 ) ;
#28 = CARTESIAN_POINT ( 'NONE',  ( 0.01562500000000000000, 0.000000000000000000, 0.000000000000000000 ) ) ;
#29 = ORIENTED_EDGE ( 'NONE', *, *, #199, .F. ) ;
#30 =( LENGTH_UNIT ( ) NAMED_UNIT ( * ) SI_UNIT ( $, .METRE. ) );
#31 = CIRCLE ( 'NONE', #58, 0.6250000000000000000 ) ;
#32 = ORIENTED_EDGE ( 'NONE', *, *, #108, .F. ) ;
#33 = CARTESIAN_POINT ( 'NONE',  ( -0.01562500000000000000, 0.000000000000000000, 0.000000000000000000 ) ) ;
#34 = VERTEX_POINT ( 'NONE', #136 ) ;
#35 = VERTEX_POINT ( 'NONE', #148 ) ;
#36 = DIMENSIONAL_EXPONENTS ( 1.000000000000000000, 0.000000000000000000, 0.000000000000000000, 0.000000000000000000, 0.000000000000000000, 0.000000000000000000, 0.000000000000000000 ) ;
#37 = CLOSED_SHELL ( 'NONE', ( #119, #137, #165, #181, #71, #20 ) ) ;
#38 =( NAMED_UNIT ( * ) SI_UNIT ( $, .STERADIAN. ) SOLID_ANGLE_UNIT ( ) );
#39 = CIRCLE ( 'NONE', #8, 0.6250000000000000000 ) ;
#40 = LINE ( 'NONE', #118, #23 ) ;
#41 = AXIS2_PLACEMENT_3D ( 'NONE', #180, #7, #43 ) ;
#42 = CARTESIAN_POINT ( 'NONE',  ( 0.01562500000000000000, 0.000000000000000000, 0.000000000000000000 ) ) ;
#43 = DIRECTION ( 'NONE',  ( 0.000000000000000000, 0.000000000000000000, -1.000000000000000000 ) ) ;
#44 = FACE_OUTER_BOUND ( 'NONE', #213, .T. ) ;
#45 = DIRECTION ( 'NONE',  ( -1.000000000000000000, -0.000000000000000000, -0.000000000000000000 ) ) ;
#46 = CARTESIAN_POINT ( 'NONE',  ( 0.01562500000000000000, 0.000000000000000000, 0.5629999999999999449 ) ) ;
#47 = EDGE_CURVE ( 'NONE', #34, #35, #57, .T. ) ;
#48 = ORIENTED_EDGE ( 'NONE', *, *, #108, .T. ) ;
#49 = CIRCLE ( 'NONE', #4, 0.5629999999999999449 ) ;
#50 = FACE_OUTER_BOUND ( 'NONE', #160, .T. ) ;
#51 = VERTEX_POINT ( 'NONE', #190 ) ;
#52 = ORIENTED_EDGE ( 'NONE', *, *, #1, .T. ) ;
#53 = SURFACE_SIDE_STYLE ('',( #204 ) ) ;
#54 = PRODUCT_RELATED_PRODUCT_CATEGORY ( 'part', '', ( #90 ) ) ;
#55 = PRODUCT_DEFINITION_SHAPE ( 'NONE', 'NONE',  #155 ) ;
#56 = LENGTH_MEASURE_WITH_UNIT ( LENGTH_MEASURE( 0.02539999999999999897 ), #175 );
#57 = LINE ( 'NONE', #177, #215 ) ;
#58 = AXIS2_PLACEMENT_3D ( 'NONE', #28, #152, #209 ) ;
#59 = CARTESIAN_POINT ( 'NONE',  ( -0.01562500000000000000, 0.000000000000000000, 0.000000000000000000 ) ) ;
#60 = FACE_OUTER_BOUND ( 'NONE', #113, .T. ) ;
#61 = DIRECTION ( 'NONE',  ( 1.000000000000000000, 0.000000000000000000, 0.000000000000000000 ) ) ;
#62 = DIRECTION ( 'NONE',  ( -1.000000000000000000, -0.000000000000000000, -0.000000000000000000 ) ) ;
#63 = EDGE_CURVE ( 'NONE', #173, #107, #40, .T. ) ;
#64 = LENGTH_MEASURE_WITH_UNIT ( LENGTH_MEASURE( 0.02539999999999999897 ), #30 );
#65 = CARTESIAN_POINT ( 'NONE',  ( 0.01562500000000000000, 0.000000000000000000, 0.000000000000000000 ) ) ;
#66 = ORIENTED_EDGE ( 'NONE', *, *, #135, .F. ) ;
#67 = CIRCLE ( 'NONE', #144, 0.6250000000000000000 ) ;
#68 = ORIENTED_EDGE ( 'NONE', *, *, #47, .T. ) ;
#69 = AXIS2_PLACEMENT_3D ( 'NONE', #161, #72, #115 ) ;
#70 = MANIFOLD_SOLID_BREP ( 'Boss-Extrude2', #37 ) ;
#71 = ADVANCED_FACE ( 'NONE', ( #50 ), #157, .T. ) ;
#72 = DIRECTION ( 'NONE',  ( 0.000000000000000000, 0.000000000000000000, 1.000000000000000000 ) ) ;
#73 = FILL_AREA_STYLE ('',( #91 ) ) ;
#74 = FILL_AREA_STYLE ('',( #2 ) ) ;
#75 = CIRCLE ( 'NONE', #110, 0.5629999999999999449 ) ;
#76 = CARTESIAN_POINT ( 'NONE',  ( 0.01562500000000000000, 0.000000000000000000, 0.000000000000000000 ) ) ;
#77 = CARTESIAN_POINT ( 'NONE',  ( 0.01562500000000000000, 0.000000000000000000, 0.6250000000000000000 ) ) ;
#78 = CARTESIAN_POINT ( 'NONE',  ( -0.01562500000000000000, 0.000000000000000000, 0.000000000000000000 ) ) ;
#79 = PLANE ( 'NONE',  #185 ) ;
#80 = LINE ( 'NONE', #169, #217 ) ;
#81 = EDGE_CURVE ( 'NONE', #107, #51, #39, .T. ) ;
#82 = DIRECTION ( 'NONE',  ( 0.000000000000000000, 0.000000000000000000, 1.000000000000000000 ) ) ;
#83 = CIRCLE ( 'NONE', #41, 0.5629999999999999449 ) ;
#84 = ORIENTED_EDGE ( 'NONE', *, *, #47, .F. ) ;
#85 =( CONVERSION_BASED_UNIT ( 'INCH', #64 ) LENGTH_UNIT ( ) NAMED_UNIT ( #220 ) );
#86 = STYLED_ITEM ( 'NONE', ( #13 ), #70 ) ;
#87 = ORIENTED_EDGE ( 'NONE', *, *, #218, .T. ) ;
#88 = ORIENTED_EDGE ( 'NONE', *, *, #135, .T. ) ;
#89 = VECTOR ( 'NONE', #122, 39.37007874015748143 ) ;
#90 = PRODUCT ( 'WCP-0570 Rev1', 'WCP-0570 Rev1', '', ( #221 ) ) ;
#91 = FILL_AREA_STYLE_COLOUR ( '', #139 ) ;
#92 =( NAMED_UNIT ( * ) PLANE_ANGLE_UNIT ( ) SI_UNIT ( $, .RADIAN. ) );
#93 = APPLICATION_PROTOCOL_DEFINITION ( 'draft international standard', 'automotive_design', 1998, #205 ) ;
#94 =( NAMED_UNIT ( * ) SI_UNIT ( $, .STERADIAN. ) SOLID_ANGLE_UNIT ( ) );
#95 = DIRECTION ( 'NONE',  ( 0.000000000000000000, 0.000000000000000000, -1.000000000000000000 ) ) ;
#96 = DIRECTION ( 'NONE',  ( -1.000000000000000000, -0.000000000000000000, -0.000000000000000000 ) ) ;
#97 = EDGE_CURVE ( 'NONE', #173, #184, #134, .T. ) ;
#98 = CARTESIAN_POINT ( 'NONE',  ( 0.01562500000000000000, 7.654042494670957853E-17, -0.6250000000000000000 ) ) ;
#99 = CARTESIAN_POINT ( 'NONE',  ( 0.01562500000000000000, 7.654042494670957853E-17, -0.6250000000000000000 ) ) ;
#100 = DIRECTION ( 'NONE',  ( 1.000000000000000000, 0.000000000000000000, 0.000000000000000000 ) ) ;
#101 = AXIS2_PLACEMENT_3D ( 'NONE', #78, #167, #183 ) ;
#102 = CARTESIAN_POINT ( 'NONE',  ( 0.01562500000000000000, 0.000000000000000000, 0.000000000000000000 ) ) ;
#103 = AXIS2_PLACEMENT_3D ( 'NONE', #59, #194, #24 ) ;
#104 = SURFACE_SIDE_STYLE ('',( #206 ) ) ;
#105 = DIRECTION ( 'NONE',  ( 1.000000000000000000, 0.000000000000000000, 0.000000000000000000 ) ) ;
#106 = EDGE_CURVE ( 'NONE', #51, #107, #67, .T. ) ;
#107 = VERTEX_POINT ( 'NONE', #195 ) ;
#108 = EDGE_CURVE ( 'NONE', #109, #158, #80, .T. ) ;
#109 = VERTEX_POINT ( 'NONE', #46 ) ;
#110 = AXIS2_PLACEMENT_3D ( 'NONE', #76, #138, #178 ) ;
#111 = DIMENSIONAL_EXPONENTS ( 1.000000000000000000, 0.000000000000000000, 0.000000000000000000, 0.000000000000000000, 0.000000000000000000, 0.000000000000000000, 0.000000000000000000 ) ;
#112 = SHAPE_DEFINITION_REPRESENTATION ( #55, #202 ) ;
#113 = EDGE_LOOP ( 'NONE', ( #52, #68, #11, #32 ) ) ;
#114 = CIRCLE ( 'NONE', #101, 0.5629999999999999449 ) ;
#115 = DIRECTION ( 'NONE',  ( 1.000000000000000000, 0.000000000000000000, 0.000000000000000000 ) ) ;
#116 =( CONVERSION_BASED_UNIT ( 'INCH', #56 ) LENGTH_UNIT ( ) NAMED_UNIT ( #36 ) );
#117 = AXIS2_PLACEMENT_3D ( 'NONE', #211, #124, #82 ) ;
#118 = CARTESIAN_POINT ( 'NONE',  ( 0.01562500000000000000, 0.000000000000000000, 0.6250000000000000000 ) ) ;
#119 = ADVANCED_FACE ( 'NONE', ( #60 ), #10, .F. ) ;
#120 = CYLINDRICAL_SURFACE ( 'NONE', #132, 0.5629999999999999449 ) ;
#121 = FACE_BOUND ( 'NONE', #187, .T. ) ;
#122 = DIRECTION ( 'NONE',  ( -1.000000000000000000, -0.000000000000000000, -0.000000000000000000 ) ) ;
#123 = CARTESIAN_POINT ( 'NONE',  ( -0.01562500000000000000, 0.000000000000000000, 0.000000000000000000 ) ) ;
#124 = DIRECTION ( 'NONE',  ( -1.000000000000000000, -0.000000000000000000, -0.000000000000000000 ) ) ;
#125 =( NAMED_UNIT ( * ) PLANE_ANGLE_UNIT ( ) SI_UNIT ( $, .RADIAN. ) );
#126 = EDGE_LOOP ( 'NONE', ( #174, #87, #197, #130 ) ) ;
#127 =( GEOMETRIC_REPRESENTATION_CONTEXT ( 3 ) GLOBAL_UNCERTAINTY_ASSIGNED_CONTEXT ( ( #6 ) ) GLOBAL_UNIT_ASSIGNED_CONTEXT ( ( #222, #223, #94 ) ) REPRESENTATION_CONTEXT ( 'NONE', 'WORKASPACE' ) );
#128 = DIRECTION ( 'NONE',  ( -1.000000000000000000, -0.000000000000000000, -0.000000000000000000 ) ) ;
#129 = UNCERTAINTY_MEASURE_WITH_UNIT (LENGTH_MEASURE( 1.000000000000000082E-05 ), #85, 'distance_accuracy_value', 'NONE');
#130 = ORIENTED_EDGE ( 'NONE', *, *, #63, .F. ) ;
#131 = ORIENTED_EDGE ( 'NONE', *, *, #63, .T. ) ;
#132 = AXIS2_PLACEMENT_3D ( 'NONE', #42, #96, #3 ) ;
#133 = APPLICATION_PROTOCOL_DEFINITION ( 'draft international standard', 'automotive_design', 1998, #171 ) ;
#134 = CIRCLE ( 'NONE', #168, 0.6250000000000000000 ) ;
#135 = EDGE_CURVE ( 'NONE', #35, #158, #114, .T. ) ;
#136 = CARTESIAN_POINT ( 'NONE',  ( 0.01562500000000000000, 6.894761479199598081E-17, -0.5629999999999999449 ) ) ;
#137 = ADVANCED_FACE ( 'NONE', ( #9 ), #153, .T. ) ;
#138 = DIRECTION ( 'NONE',  ( 1.000000000000000000, 0.000000000000000000, 0.000000000000000000 ) ) ;
#139 = COLOUR_RGB ( '',0.2980392156862745057, 0.2980392156862745057, 0.2980392156862745057 ) ;
#140 = LINE ( 'NONE', #99, #89 ) ;
#141 = DIRECTION ( 'NONE',  ( 0.000000000000000000, 0.000000000000000000, -1.000000000000000000 ) ) ;
#142 = CARTESIAN_POINT ( 'NONE',  ( 0.01562500000000000000, 0.000000000000000000, 0.000000000000000000 ) ) ;
#143 = EDGE_LOOP ( 'NONE', ( #188, #29 ) ) ;
#144 = AXIS2_PLACEMENT_3D ( 'NONE', #123, #100, #141 ) ;
#145 = PRODUCT_DEFINITION_CONTEXT ( 'detailed design', #205, 'design' ) ;
#146 = ORIENTED_EDGE ( 'NONE', *, *, #218, .F. ) ;
#147 = EDGE_CURVE ( 'NONE', #184, #173, #31, .T. ) ;
#148 = CARTESIAN_POINT ( 'NONE',  ( -0.01562500000000000000, 6.894761479199598081E-17, -0.5629999999999999449 ) ) ;
#149 = ORIENTED_EDGE ( 'NONE', *, *, #97, .T. ) ;
#150 = FACE_BOUND ( 'NONE', #143, .T. ) ;
#151 = UNCERTAINTY_MEASURE_WITH_UNIT (LENGTH_MEASURE( 1.000000000000000082E-05 ), #116, 'distance_accuracy_value', 'NONE');
#152 = DIRECTION ( 'NONE',  ( 1.000000000000000000, 0.000000000000000000, 0.000000000000000000 ) ) ;
#153 = CYLINDRICAL_SURFACE ( 'NONE', #117, 0.6250000000000000000 ) ;
#154 = ORIENTED_EDGE ( 'NONE', *, *, #199, .T. ) ;
#155 = PRODUCT_DEFINITION ( 'UNKNOWN', '', #191, #145 ) ;
#156 = PRESENTATION_LAYER_ASSIGNMENT (  '', '', ( #86 ) ) ;
#157 = CYLINDRICAL_SURFACE ( 'NONE', #27, 0.6250000000000000000 ) ;
#158 = VERTEX_POINT ( 'NONE', #25 ) ;
#159 = AXIS2_PLACEMENT_3D ( 'NONE', #102, #62, #26 ) ;
#160 = EDGE_LOOP ( 'NONE', ( #146, #198, #131, #219 ) ) ;
#161 = CARTESIAN_POINT ( 'NONE',  ( 0.000000000000000000, 0.000000000000000000, 0.000000000000000000 ) ) ;
#162 = DIRECTION ( 'NONE',  ( -1.000000000000000000, -0.000000000000000000, -0.000000000000000000 ) ) ;
#163 = DIRECTION ( 'NONE',  ( 0.000000000000000000, 0.000000000000000000, -1.000000000000000000 ) ) ;
#164 = CARTESIAN_POINT ( 'NONE',  ( 0.01562500000000000000, 0.000000000000000000, 0.000000000000000000 ) ) ;
#165 = ADVANCED_FACE ( 'NONE', ( #166, #150 ), #79, .T. ) ;
#166 = FACE_OUTER_BOUND ( 'NONE', #16, .T. ) ;
#167 = DIRECTION ( 'NONE',  ( 1.000000000000000000, 0.000000000000000000, 0.000000000000000000 ) ) ;
#168 = AXIS2_PLACEMENT_3D ( 'NONE', #142, #182, #196 ) ;
#169 = CARTESIAN_POINT ( 'NONE',  ( 0.01562500000000000000, 0.000000000000000000, 0.5629999999999999449 ) ) ;
#170 = EDGE_LOOP ( 'NONE', ( #84, #154, #48, #66 ) ) ;
#171 = APPLICATION_CONTEXT ( 'automotive_design' ) ;
#172 = MECHANICAL_DESIGN_GEOMETRIC_PRESENTATION_REPRESENTATION (  '', ( #200 ), #12 ) ;
#173 = VERTEX_POINT ( 'NONE', #77 ) ;
#174 = ORIENTED_EDGE ( 'NONE', *, *, #147, .F. ) ;
#175 =( LENGTH_UNIT ( ) NAMED_UNIT ( * ) SI_UNIT ( $, .METRE. ) );
#176 = SURFACE_STYLE_USAGE ( .BOTH. , #53 ) ;
#177 = CARTESIAN_POINT ( 'NONE',  ( 0.01562500000000000000, 6.894761479199598081E-17, -0.5629999999999999449 ) ) ;
#178 = DIRECTION ( 'NONE',  ( 0.000000000000000000, 0.000000000000000000, -1.000000000000000000 ) ) ;
#179 = COLOUR_RGB ( '',0.2980392156862745057, 0.2980392156862745057, 0.2980392156862745057 ) ;
#180 = CARTESIAN_POINT ( 'NONE',  ( 0.01562500000000000000, 0.000000000000000000, 0.000000000000000000 ) ) ;
#181 = ADVANCED_FACE ( 'NONE', ( #44, #121 ), #208, .F. ) ;
#182 = DIRECTION ( 'NONE',  ( 1.000000000000000000, 0.000000000000000000, 0.000000000000000000 ) ) ;
#183 = DIRECTION ( 'NONE',  ( 0.000000000000000000, 0.000000000000000000, -1.000000000000000000 ) ) ;
#184 = VERTEX_POINT ( 'NONE', #98 ) ;
#185 = AXIS2_PLACEMENT_3D ( 'NONE', #164, #61, #5 ) ;
#186 = DIRECTION ( 'NONE',  ( 0.000000000000000000, 0.000000000000000000, 1.000000000000000000 ) ) ;
#187 = EDGE_LOOP ( 'NONE', ( #201, #88 ) ) ;
#188 = ORIENTED_EDGE ( 'NONE', *, *, #1, .F. ) ;
#189 =( GEOMETRIC_REPRESENTATION_CONTEXT ( 3 ) GLOBAL_UNCERTAINTY_ASSIGNED_CONTEXT ( ( #129 ) ) GLOBAL_UNIT_ASSIGNED_CONTEXT ( ( #85, #125, #15 ) ) REPRESENTATION_CONTEXT ( 'NONE', 'WORKASPACE' ) );
#190 = CARTESIAN_POINT ( 'NONE',  ( -0.01562500000000000000, 7.654042494670957853E-17, -0.6250000000000000000 ) ) ;
#191 = PRODUCT_DEFINITION_FORMATION_WITH_SPECIFIED_SOURCE ( 'ANY', '', #90, .NOT_KNOWN. ) ;
#192 = DIRECTION ( 'NONE',  ( 1.000000000000000000, 0.000000000000000000, 0.000000000000000000 ) ) ;
#193 = LENGTH_MEASURE_WITH_UNIT ( LENGTH_MEASURE( 0.02539999999999999897 ), #210 );
#194 = DIRECTION ( 'NONE',  ( 1.000000000000000000, 0.000000000000000000, 0.000000000000000000 ) ) ;
#195 = CARTESIAN_POINT ( 'NONE',  ( -0.01562500000000000000, 0.000000000000000000, 0.6250000000000000000 ) ) ;
#196 = DIRECTION ( 'NONE',  ( 0.000000000000000000, 0.000000000000000000, -1.000000000000000000 ) ) ;
#197 = ORIENTED_EDGE ( 'NONE', *, *, #106, .T. ) ;
#198 = ORIENTED_EDGE ( 'NONE', *, *, #97, .F. ) ;
#199 = EDGE_CURVE ( 'NONE', #34, #109, #83, .T. ) ;
#200 = STYLED_ITEM ( 'NONE', ( #19 ), #202 ) ;
#201 = ORIENTED_EDGE ( 'NONE', *, *, #14, .T. ) ;
#202 = ADVANCED_BREP_SHAPE_REPRESENTATION ( 'WCP-0570 Rev1', ( #70, #69 ), #127 ) ;
#203 = MECHANICAL_DESIGN_GEOMETRIC_PRESENTATION_REPRESENTATION (  '', ( #86 ), #189 ) ;
#204 = SURFACE_STYLE_FILL_AREA ( #73 ) ;
#205 = APPLICATION_CONTEXT ( 'automotive_design' ) ;
#206 = SURFACE_STYLE_FILL_AREA ( #74 ) ;
#207 = CARTESIAN_POINT ( 'NONE',  ( -0.01562500000000000000, 0.000000000000000000, 0.000000000000000000 ) ) ;
#208 = PLANE ( 'NONE',  #103 ) ;
#209 = DIRECTION ( 'NONE',  ( 0.000000000000000000, 0.000000000000000000, -1.000000000000000000 ) ) ;
#210 =( LENGTH_UNIT ( ) NAMED_UNIT ( * ) SI_UNIT ( $, .METRE. ) );
#211 = CARTESIAN_POINT ( 'NONE',  ( 0.01562500000000000000, 0.000000000000000000, 0.000000000000000000 ) ) ;
#212 = ORIENTED_EDGE ( 'NONE', *, *, #106, .F. ) ;
#213 = EDGE_LOOP ( 'NONE', ( #216, #212 ) ) ;
#214 = SURFACE_STYLE_USAGE ( .BOTH. , #104 ) ;
#215 = VECTOR ( 'NONE', #162, 39.37007874015748143 ) ;
#216 = ORIENTED_EDGE ( 'NONE', *, *, #81, .F. ) ;
#217 = VECTOR ( 'NONE', #45, 39.37007874015748143 ) ;
#218 = EDGE_CURVE ( 'NONE', #184, #51, #140, .T. ) ;
#219 = ORIENTED_EDGE ( 'NONE', *, *, #81, .T. ) ;
#220 = DIMENSIONAL_EXPONENTS ( 1.000000000000000000, 0.000000000000000000, 0.000000000000000000, 0.000000000000000000, 0.000000000000000000, 0.000000000000000000, 0.000000000000000000 ) ;
#221 = PRODUCT_CONTEXT ( 'NONE', #171, 'mechanical' ) ;
#222 =( CONVERSION_BASED_UNIT ( 'INCH', #193 ) LENGTH_UNIT ( ) NAMED_UNIT ( #111 ) );
#223 =( NAMED_UNIT ( * ) PLANE_ANGLE_UNIT ( ) SI_UNIT ( $, .RADIAN. ) );
ENDSEC;
END-ISO-10303-21;
